Misanthrope
GB
English


Tablatures
Trumpets of Hypochondria
.

Transcrit par Aymeric Fontaine.
PART A :   0:00
   GUITAR1
|-----------------------------------------------------------------------------------------|
|------------------------------------------------------------------------5----------------|
|----7--7-5---5-5h7-5---7-5--7-5-5-5-7-5-----3--7\5-5\3-3/5-5---3-2--5-7---7-5-7-5--------|
|----7------7-----------7-5--------------7---3------------------3-2----------------7-7----|
|----5------------------5-3------------------1------------------1-0-----------------------|
|-----------------------------------------------------------------------------------------|


   GUITAR2
|---------------------------------------------------------------------------------|
|---------------------------------------------------------------------------------|
|----7------------------7-5------------------3------------------3-2---------------|
|----7--8-7---7-7h8-7---7-5--8-7-7-7-8-7-----3--8\7-7\5-5/7-7---3-2----5-7-5-7----|
|----5------8-----------5-3--------------8---1------------------1-0--8------------|
|---------------------------------------------------------------------------------|



PART B :   0:12
   GUITAR1
|-----------------------------------------------------------------------------------------|
|------------------------------------------------------------------------5----------------|
|----7--7-5---5-5h7-5---7-5--7-5-5-5-7-5-----3------------------3-2--5-7---7-5-7-5--------|
|----7------7-----------7-5--------------7---3------------------3-2----------------7-7----|
|----5------------------5-3------------------1------------------1-0-----------------------|
|-----------------------------------------------------------------------------------------|


   GUITAR2
|---------------------------------------------------------------------------------|
|---------------------------------------------------------------------------------|
|----7------------------7-5------------------3------------------3-2---------------|
|----7--8-7---7-7h8-7---7-5--8-7-7-7-8-7-----3------------------3-2----5-7-5-7----|
|----5------8-----------5-3--------------8---1------------------1-0--8------------|
|---------------------------------------------------------------------------------|



PART C :   0:25
   BOTH GUITARS
|-----------------------------------------------------------5----|
|--------6-5---6-5-------5-----5------------------------5-5------|
|----7-------7-----7-5-----7-5---7-5-----7-5---7-5---------------|
|------------------------------------8-------8-----8-7-----------|
|----------------------------------------------------------------|
|----------------------------------------------------------------|



PART D :   0:38
   GUITAR1
|---------------------------------------------------------------------------------------|
|---------------------------------------------------------------------------------------|
|----7--7-5---5-5h7-5---7-5--7-5-5-5-7-5-----3--7\5-5\3-3/5-5---3-2--7-5-5--5-7-5-------|
|----7------7-----------7-5--------------7---3------------------3-2---------------7-----|
|----5------------------5-3------------------1------------------1-0---------------------|
|---------------------------------------------------------------------------------------|


   GUITAR2
|---------------------------------------------------------------------------------|
|---------------------------------------------------------------------------------|
|----7------------------7-5------------------3------------------3-2---------------|
|----7--8-7---7-7h8-7---7-5--8-7-7-7-8-7-----3--8\7-7\5-5/7-7---3-2----5-7-5-7----|
|----5------8-----------5-3--------------8---1------------------1-0--8------------|
|---------------------------------------------------------------------------------|



PART E :   0:51
   GUITAR1
|-----------------------------------------------------------5----|
|--------6-5---6-5-------5-----5------------------------5-5------|
|----7-------7-----7-5-----7-5---7-5-----7-5---7-5---------------|
|------------------------------------8-------8-----8-7-----------|
|----------------------------------------------------------------|
|----------------------------------------------------------------|


   GUITAR2
|--------------------------------------------------------------------------------|
|--------------------------------------------------------------------------------|
|----7-------7-----7----5-------5-----5------------------------------------------|
|----7-------7-----7----5-------5-----5----8-------8-----8----7-------7-----7----|
|----5-5-5-5-5-5-5-5----3-3-3-3-3-3-3-3----8-------8-----8----7-------7-----7----|
|------------------------------------------6-6-6-6-6-6-6-6----5-5-5-5-5-5-5-5----|
       . . .   . .        . . .   . .        . . .   . .        . . .   . .


PART F :  1:03
   GUITAR1
|----------------------------------------------------------------------------------|
|----------------------------------------------------------------------------------|
|----7-------7----------5-------5--------------------------------------------------|
|----7-------7-----7ah--5-------5-----5ah--8-------8----------7-------7------------|
|----5-5-5-5-5-5-5------3-3-3-3-3-3-3------8-------8-----8ah--7-------7-----7ah----|
|------------------------------------------6-6-6-6-6-6-6------5-5-5-5-5-5-5--------|
       . . .   . .        . . .   . .        . . .   . .        . . .   . .

   GUITAR2
|----------------------------------------------------------------------------------|
|----------------------------------------------------------------------------------|
|----7-------7----------5-------5--------------------------------------------------|
|----7-------7-----7----5-------5-----5----8-------8----------7-------7------------|
|----5-5-5-5-5-5-5------3-3-3-3-3-3-3------8-------8-----8----7-------7-----7------|
|------------------------------------------6-6-6-6-6-6-6------5-5-5-5-5-5-5--------|
       . . .   . .        . . .   . .        . . .   . .        . . .   . .


ACCOUSTIC PART   1:16


PART G :   1:29
   BOTH GUITARS
|----------------------------------------------5----|
|--------------------------------------------5------|
|----7---7-7----5---5-5-----------------------------|
|----7---7-7----5---5-5----8---8-8--8-8----7--------|
|----5---5-5----3---3-3----8---8-8--8-8----7--------|
|--------------------------6---6-6--6-6----5--------|



PART H :   1:40
   GUITAR 1
|--------------12--------13-12-----15-13-12--17-15-----17-15-----20-18-17----17---------------------|
|----15-13--------15-13--------15------------------18--------18-----------20-------20-18-20---17----|
|----------15---------------------------------------------------------------------------------------|
|---------------------------------------------------------------------------------------------------|
|---------------------------------------------------------------------------------------------------|
|---------------------------------------------------------------------------------------------------|

|-----------------------------------------------------------------------------------------------|
|----15-13-----------------------------------------------------------13-15-13----------13-------|
|----------15-14-12----12-----------------------------------12-14-15----------15-14-15----15----|
|-------------------15------12-14-15-12---12-12-14-15-12----------------------------------------|
|-----------------------------------------------------------------------------------------------|
|-----------------------------------------------------------------------------------------------|

|-------------------------------------------|
|----15-13----------------------------------|
|----------15-14-12----12---14-12-----------|
|-------------------15------------15--12----|
|-------------------------------------------|
|-------------------------------------------|


   GUITAR 2
|-------------------------5------------------------5------|
|-----------------------5------------------------5--------|
|----7---7-5------------------7---7-5----------------7----|
|----7---7-5----8----7--------7---7-5----8----7-----------|
|----5---5-3----8----7--------5---5-3----8----7-----------|
|---------------6----5-------------------6----5-----------|
J espère que vous apprécierez ces tablatures malgré les quelques erreurs qui s'y glissent. Pour toutes corrections, encouragements, insultes ou autre, me contacter : cannibal.invasion@caramail.com

Bien évidemment, les mesures ne sont pas exactes, il faut se référer au morceau pour avoir les bons temps.

-mail
Mise à jour: 24 Juillet 2001