Misanthrope
GB
English


Tablatures
Sans Complaisance
.

Transcrit par Anthony Scemama.
Guitare
                                                  
D||-------||-------------------------------------|
A||-------||-------------------------------------|
F||-------||*------------------------------------|
C||--9/---||*------------------------------------|
G||--7/---||---2----------------2----------------|
D||--7/---||---0----0-0-0-0-0-0-0----0-0-0-0-0-0-|


                                                                    
------------------------------|------------------------------------|
------------------------------|------------------------------------|
------------------------------|------------------------------------|
-------------------8--9--5----|--8/--------------------------------|
--2----------------6--7--3----|--6----------------2----------------|
--0----0-0-0-0-0-0-6--7--3----|--6/---0-0-0-0-0-0-0----0-0-0-0-0-0-|


                                                                      
------------------------------||-------------------------------------|
------------------------------||-------------------------------------|
--12/-11--11-----------------*||*------------------------------------|
-----------------------------*||*------------------------------------|
--10/-9---9-------------------||---2----------------2----------------|
--------------5-6-7--3--6~----||---0----0-0-0-0-0-0-0----0-0-0-0-0-0-|


                                                                    
------------------------------|------------------------------------|
------------------------------|------------------------------------|
------------------------------|------------------------------------|
-------------------8--9--5----|--8/--------------------------------|
--2----------------6--7--3----|--6----------------2----------------|
--0----0-0-0-0-0-0-6--7--3----|--6/---0-0-0-0-0-0-0----0-0-0-0-0-0-|


                                                                            
------------------------------||-------------------------------------------|
------------------------------||-------------------------------------------|
--12/-11--11-----------------*||*------------------------------------------|
-----------------------------*||*------------------------------------------|
--10/-9---9-------------------||-----------2-2-2-2---------1-1-1-1---------|
--------------5-6-7--3--6~----||---0-0-0-0---------3-3-3-3---------2-2-2-2-|


                                             
--------------------------------------------|
--------------------------------------------|
--------------------------------------------|
--------------------------------------------|
----------2-2-2-2---------1-1-1-1-4----5----|
--0-0-0-0---------3-3-3-3---------2----3----|


                                           
------------------------------------------|
------------------------------------------|
------------------------------------------|
------------------------------------------|
----------2-2-2-2---------1-1-1-1---------|
--0-0-0-0---------3-3-3-3---------2-2-2-2-|


                                                                      
------------------------------------------||-------------------------|
------------------------------------------||-------------------------|
-----------------------------------------*||-------------------------|
--------------------------5----8----9/---*||--------9-----8----------|
----------2-2-2-2---------3----6----7/----||--------10----9----------|
--0-0-0-0---------3-3-3-3-3----6----7/----||--0--0-------------0--0--|


                                                      
|-------------------------|--------------------------|
|-------------------------|--------------------------|
|*------------------------|--------------------------|
|*--8----7----------------|--------------------------|
|---9----8----------------|--------------------------|
|-------------0--0--0--0--|--0--0--0--0--0--0--0--0--|


                                                                              
--------------------------|-------------------------|------------------------|
--------------------------|-------------------------|------------------------|
--------------------------|-------------------------|------------------------|
--------------------------|--------9-----8----------|--8----7----------------|
--------------------------|--------10----9----------|--9----8----------------|
--0--0--0--0--0--0--0--0--|--0--0-------------0--0--|------------0--0--0--0--|


                                                        
--------------------------|----------------------------|
--------------------------|----------------------------|
--------------------------|----------------------------|
--------------------------|----------------------------|
--------------------------|---------------------8------|
--0--3--6--0--6--0--6--8--|--0--8--0--8--9--10-----10--|


                                                                              
-------------------------|------------------------|--------------------------|
-------------------------|------------------------|--------------------------|
-------------------------|------------------------|--------------------------|
--------9-----8----------|--8----7----------------|--------------------------|
--------10----9----------|--9----8----------------|--------------------------|
--0--0-------------0--0--|------------0--0--0--0--|--0--0--0--0--0--0--0--0--|


                                                                                
----------------------------|-------------------------|------------------------|
----------------------------|-------------------------|------------------------|
----------------------------|-------------------------|------------------------|
----------------------9--9--|--------9-----8----------|--8----7----------------|
----------------------7--7--|--------10----9----------|--9----8----------------|
--0--0--0--0--0-0-0-0-------|--0--0-------------0--0--|------------0--0--0--0--|


                                                        
--------------------------|----------------------------|
--------------------------|----------------------------|
--------------------------|----------------------------|
--------------------------|----------------------------|
--------------------------|---------------------8------|
--0--3--6--0--6--0--6--8--|--0--8--0--8--9--10-----10--|


                                                                                
--------------------------|----------------------|----------------------------||
--------------------------|----------------------|----------------------------||
--------------------------|----------------------|---------------------------*||
--------------------------|----------------------|----------9-----8----------*||
--8/-7-----7/-6-----6/-5--|--2----2----2----2----|----------10----9-----------||
--------9--------8--------|--0----0----0----0----|--0-0-0-0------------0--0---||


                                                                         
----------------------|------------------||-----------------------------|
----------------------|------------------||-----------------------------|
----------------------|------------------||*----------------------------|
----------------------|------------------||*----------------------------|
--2----2----2----2----|------------------||-----------5----4------------|
--0----0----0----0----|------------------||---0-0-0-0-3----2----0-0-0-0-|


                                                           
----------------------------|-----------------------------|
----------------------------|-----------------------------|
----------------------------|-----------------------------|
----------------------------|------------9---------4h5h4--|
--4----3--------------------|--7--------------------------|
--2----1----0-0-0-0-0-0-0-0-|-----0-0-0-----0-0-0---------|


                                                        
--------------------------|----------------------------|
--------------------------|----------------------------|
--------------------------|----------------------------|
--------------------------|----------------------------|
--7--5--3--2--3h-2--------|----------5----4------------|
--------------------3--2--|--0-0-0-0-3----2----0-0-0-0-|


                                                                
----------------------------|----------------------------------|
----------------------------|----------------------------------|
----------------------------|----------------------------------|
----------------------------|----------------------------------|
--4----3--------------------|--2-2-2-2-----------------4-4-4-4-|
--2----1----0-0-0-0-0-0-0-0-|----------2-2-2-2-3-3-3-3---------|


                                                                        
-----------------------------------||----------------------------------|
-----------------------------------||----------------------------------|
----------------------------------*||----------------------------------|
----------------------------------*||----------------------------------|
------------------5-5-5-5-4-4-4-4--||--2-2-2-2-----------------4-4-4-4-|
--2-2-2-2-3-3-3-3------------------||----------2-2-2-2-3-3-3-3---------|


                                                                
----------------------------|----------------------------------|
----------------------------|----------------------------------|
----------------------------|----------------------------------|
----------------------------|----------------------------------|
------------------2----3----|--2-2-2-2-----------------4-4-4-4-|
--2-2-2-2-3-3-3-3-0----1----|----------2-2-2-2-3-3-3-3---------|


                                                                      
----------------------------------|----------------------------------|
----------------------------------|----------------------------------|
----------------------------------|----------------------------------|
----------------------------------|----------------------------------|
------------------5-5-5-5-4-4-4-4-|--2-2-2-2-----------------4-4-4-4-|
--2-2-2-2-3-3-3-3-----------------|----------2-2-2-2-3-3-3-3---------|


                                                                
----------------------------|----------------------------------|
----------------------------|----------------------------------|
----------------------------|----------------------------------|
----------------------------|----------------------------------|
------------------2----3----|--3-3-3-3-----------------5-5-5-5-|
--2-2-2-2-3-3-3-3-0----1----|----------3-3-3-3-4-4-4-4---------|


                                                                      
----------------------------------|----------------------------------|
----------------------------------|----------------------------------|
----------------------------------|----------------------------------|
----------------------------------|----------------------------------|
------------------6-6-6-6-5-5-5-5-|--3-3-3-3-----------------5-5-5-5-|
--3-3-3-3-4-4-4-4-----------------|----------3-3-3-3-4-4-4-4---------|


                                                                
----------------------------|----------------------------------|
----------------------------|----------------------------------|
----------------------------|----------------------------------|
----------------------------|----------------------------------|
------------------3----4----|--2-2-2-2-----------------4-4-4-4-|
--3-3-3-3-4-4-4-4-1----2----|----------2-2-2-2-3-3-3-3---------|


                                                                      
----------------------------------|----------------------------------|
----------------------------------|----------------------------------|
----------------------------------|----------------------------------|
----------------------------------|----------------------------------|
------------------5-5-5-5-4-4-4-4-|--2-2-2-2-----------------4-4-4-4-|
--2-2-2-2-3-3-3-3-----------------|----------2-2-2-2-3-3-3-3---------|


                                                           
----------------------------||----------------------------|
----------------------------||----------------------------|
----------------------------||*---------------------------|
----------------------------||*--------------------10/-9/-|
------------------2----3----||---2-----------------8/--7/-|
--2-2-2-2-3-3-3-3-0----1----||---0--0--0--0--0--0--8/--7/-|


                                                                               
-------------------------|--------------------------|-------------------------|
-------------------------|--------------------------|-------------------------|
-------------------------|--------------------------|-------------------------|
--10---------------------|-------------------10/-9/-|--10---------------------|
--8-----------------6----|--------7----------8/--7/-|--8-----------3-----6/---|
--8/----0--0--0--0--4----|--0--0--5----0--0--8/--7/-|--8/----0--0--1--0--4/---|


                                                      
---------------------------|-------------------------|
---------------------------|-------------------------|
---------------------------|-------------------------|
--------------------10/-9/-|--10---------------------|
--2-----------------8/--7/-|--8-----------------6----|
--0--0--0--0--0--0--8/--7/-|--8/----0--0--0--0--4----|


                                                       
--------------------------|--------------------------||
--------------------------|--------------------------||
--------------------------|-------------------------*||
-------------------10/-9/-|--10---------------------*||
--------7----------8/--7/-|--8-----------3-----------||
--0--0--5----0--0--8/--7/-|--8/----0--0--1--0--4-----||


                                                       
---------------------------|--------------------------|
---------------------------|--------------------------|
*--------------------------|--------------------------|
*--------------------------|--------------------------|
---------------7--7--------|--5--5--------------------|
---5--5--5--5--------8--8--|--------8--8--7--7--5--5--|


                                                      
--------------------------|--------------------------|
--------------------------|--------------------------|
--------------------------|--------------------------|
--------------------------|--------------------------|
--------------------------|--------------------------|
--1--1--1--1--1--1--1--1--|--1--1--1--1--3--3--3--3--|


                                                      
--------------------------|--------------------------|
--------------------------|--------------------------|
--------------------------|--------------------------|
--------------------------|--------------------------|
--------------7--7--------|--5--5--------------8--8--|
--5--5--5--5--------8--8--|--------8--8--7--7--------|


                                                                  
--------------------------|-------------------------------||----||
--------------------------|-------------------------------||----||
--------------------------|------------------------------*||----||
--------------------------|------------------------------*||----||
--7--7--5--5--------------|----------3--3----------6--6---||----||
--------------8--8--7--7--|--1-1-1-1-1--1--4-4-4-4-4--4---||----||

-mail
Mise jour: 13 Juin 2003