Misanthrope
FR
Français


Tablatures
Sadistic Sex Daemon
.

Trancribed by Anthony Scemama.
Guitare1
                                                         
D||---------------------------|-------------------------|
A||---------------------------|-------------------------|
F||---------------------------|-------------------------|
C||--6------------------------|--6----------------------|
G||--4------------------------|--4------------8----7----|
D||--4------------------------|--4------------6----5----|


                                                                     
---------------------------|----------------------------------------|
---------------------------|----------------------------------------|
---------------------------|--10--9--7--10--9--7--------------------|
--6------------------------|----------------------------------------|
--4------------------------|----------------------8--7--5--8--7--5--|
--4------------------------|----------------------------------------|


                                                        
------------------------------|------------------------|
------------------------------|------------------------|
------------------------------|------------------------|
--6---------------------------|------------------------|
--4------------5----7----8----|--------------8----7----|
--4------------3----5----6----|--------------6----5----|


                                                                        
------------------------------|----------------------------------------|
------------------------------|----------------------------------------|
------------------------------|--10--9--7--10--9--7--------------------|
--6---------------------------|----------------------------------------|
--4------------5----7----8----|----------------------8--7--5--8--7--5--|
--4------------3----5----6----|----------------------------------------|


                                                         
--------------------------------------------------------|
--------------------------------------------------------|
--------------------------------------------------------|
-----------------------------5--5--5--7--7--7--8--8--8--|
--4--4--4--5--5--5--7--7--7-----------------------------|
--------------------------------------------------------|


                                                
-----------------------------------------------|
-----------------------------------------------|
-----------------------------------------------|
-----------------------------------------------|
--4--4--4--5--5--5--7--7--7--------------------|
-----------------------------6--6--6--5--5--5--|


                                                         
--------------------------------------------------------|
--------------------------------------------------------|
--------------------------------------------------------|
-----------------------------5--5--5--7--7--7--8--8--8--|
--4--4--4--5--5--5--7--7--7-----------------------------|
--------------------------------------------------------|


                                                                     
----------------------------------------||--------------------------|
----------------------------------------||--------------------------|
--10--9--7--10--9--7--------------------||*-------------------------|
----------------------------------------||*-------------------------|
----------------------8--7--5--8--7--5--||---------------------3----|
----------------------------------------||---0--0--0--0--0--0--1----|


                                                         
------------------------------|-------------------------|
------------------------------|-------------------------|
------------------------------|-------------------------|
------------------------------|-------------------------|
--------------------4----5~---|--------------------3----|
--0--0--0--0--0--0--5----6~---|--0--0--0--0--0--0--1----|


                                                                                
---------------------------------------||--------------------------------------|
---------------------------------------||--------------------------------------|
--------------------------------------*||--------------------------------------|
--------------------------------------*||--------------------------------------|
---------------------------------------||--------------------------------------|
--4--4--6--6--7--7--6--6--4--4--3--3---||--4--4--6--6--7--7--6--6--7--7--9--9--|


                                                                                
---------------------||------------------------------|-------------------------|
---------------------||------------------------------|-------------------------|
---------------------||*-----------------------------|-------------------------|
------------------4--||*--------6------7-------------|----------------------4--|
------------------5--||-----5-5-4--0-0-5--5-5-----4--|----------------------5--|
--7----9----10-------||-----------------------0-0-2--|----2--2--2--2--2--2-----|


                                                          
-----------------------------|--------------------------||
-----------------------------|--------------------------||
-----------------------------|-------------------------*||
--------6------7-------------|----------------------4--*||
----5-5-4--0-0-5--5-5-----4--|------------5----4----5---||
----------------------0-0-2--|----2-2-2-2-7----5--------||


                                                                             
------------------------|-------------------|-------------------------------|
------------------------|-------------------|-------------------------------|
------------------------|-------------------|-------------------------------|
------------------------|--7----------------|-------------------------------|
------------5----4------|--5----------------|-------------------------------|
----2-2-2-2-7----5------|--5----------------|--2-2-2-5-2-2-4-2-2-5-2-2-4----|


                                                       
-------------------|----------------------------------|
-------------------|----------------------------------|
-------------------|----------------------------------|
--7----------------|------------------11-11---11-11---|
--5----------------|------------------9--9----9--9----|
--5----------------|--2-2-2-5-2-2-4-2-----------------|


                                                              
--------------------------------|----------------------------|
--------------------------------|----------------------------|
--------------------------------|----------------------------|
--------------------------------|--------7-7-6-6-----6/-7----|
--------------5-5-4-4-----4/-5--|----5-5---------8-8-7/-8----|
--3-3-3-3-3-3---------6-6-5/-6--|----------------------------|


                                                                            
----------------------------------------|----------------------------------|
----------------------------------------|----------------------------------|
--6h7h6---------------------------------|----------------------------------|
---------9--8--5--9--8--5h8h5--------5--|----------------------------------|
-------------------------------9--7-----|--9--7--5--4--4h-5--4-------------|
----------------------------------------|-----------------------6h-7--6~---|


                                                                       
-----------------------------|----------------------------------------|
-----------------------------|----------------------------------------|
-----------------------------|----------------------------------------|
--------4--------5--4--------|--4------------------4------------------|
-----1--------2-----1--------|--2--2-2-2--2--2--2--2--2-2-2--2--2--2--|
--2--------3--------2--------|----------------------------------------|


                                                   
--------------------------------------------------|
--------------------------------------------------|
--------------------------------------------------|
--------------------------------------------------|
--2-2-2-2-2-2-2-2-2-2-2-2-2-2-2-2-2-2-2-2-2-2-2-2-|
--------------------------------------------------|


                                           
|-----------------------------------------|
|-----------------------------------------|
|*----------------------------------------|
|*--4------------------4------------------|
|---2--2-2-2--2--2--2--2--2-2-2--2--2--2--|
|-----------------------------------------|


                                        
---------------------------------------|
---------------------------------------|
---------------------------------------|
-----------------------------5-4-2-----|
-----2--5--4--2-----------5---------5--|
--3--------------3--2--5---------------|


                                                                                
----------------------------------------|--------------------------------------|
----------------------------------------|--------------------------------------|
----------------------------------------|--------------------------------------|
--4------------------4------------------|--------------------------------------|
--2--2-2-2--2--2--2--2--2-2-2--2--2--2--|-----2--5--4--2--------------------5--|
----------------------------------------|--3--------------3--2--0--2--3--5-----|


                                         
----------------------------------------|
----------------------------------------|
----------------------------------------|
--4------------3/-4--4------------------|
--2--2-2-2--2--1/-2--2--2-2-2--2--2--2--|
----------------------------------------|


                                                                            
---------------------------------------|-----------------------------------|
---------------------------------------|-----------------------------------|
---------------------------------------|---------------------------11------|
-----------------------------5-4-2-----|--4------------3--4--4-----9-------|
-----2--5--4--2-----------5---------5--|--2--2-2-2--2--1--2--2--2--9-------|
--3--------------3--2--5---------------|-----------------------------------|


                                                                      
-------------------------------||------------------------------------|
-------------------------------||------------------------------------|
------------------------------*||------------------------11----11----|
-------------------------7/---*||--4------------3/-4--4--9-----9-----|
-----2--5--4--2-----4----5/----||--2--2-2-2--2--1/-2--2--9-----9-----|
--3--------------3--2----------||------------------------------------|


                                                                         
------------------------------||----------------------------------------|
------------------------------||----------------------------------------|
------------------------------||*---------------------------------------|
-------------------------7/---||*--4--------7--------6--------11--------|
-----2--5--4--2-----4----5/---||---2--2--2--5--5--5--4--4--4--9---9--9--|
--3--------------3--2---------||----------------------------------------|


                                         
---------------------------------------||
---------------------------------------||
--------------------------------------*||
--4--------7--------------------------*||
--2--2--2--5--5--5--2--4--5--1--2--4---||
---------------------------------------||


                                                
-----------------------------------------------|
-----------------------------------------------|
-----------------------------------------------|
--4----------7----------6----------11----------|
--2--2-2-2-2-5--5-5-5-5-4--4-4-4-4-9---9-9-9-9-|
-----------------------------------------------|


                                           
------------------------------------------|
------------------------------------------|
------------------------------------------|
--4----------7----------------------------|
--2--2-2-2-2-5--5-5-5-5-1--2--4--2--4--5--|
------------------------------------------|


                                                
-----------------------------------------------|
-----------------------------------------------|
-----------------------------------------------|
--4----------7----------6----------11----------|
--2--2-2-2-2-5--5-5-5-5-4--4-4-4-4-9---9-9-9-9-|
-----------------------------------------------|


                                                 
------------------------------------------|----||
------------------------------------------|----||
------------------------------------------|----||
--4----------7----------------------------|----||
--2--2-2-2-2-5--5-5-5-5-1--2--4--2--4--5--|----||
------------------------------------------|----||



=======================================================================================

                              Sadistic sex daemon


Guitare2
                                                            
D||--------------------------------------------------------|
A||--------------------------------------------------------|
F||--------------------------------------------------------|
C||-----------------------------5--5--5--7--7--7--8--8--8--|
G||--4--4--4--5--5--5--7--7--7-----------------------------|
D||--------------------------------------------------------|


                                                
-----------------------------------------------|
-----------------------------------------------|
-----------------------------------------------|
-----------------------------------------------|
--4--4--4--5--5--5--7--7--7--------------------|
-----------------------------6--6--6--5--5--5--|


                                                         
--------------------------------------------------------|
--------------------------------------------------------|
--------------------------------------------------------|
-----------------------------5--5--5--7--7--7--8--8--8--|
--4--4--4--5--5--5--7--7--7-----------------------------|
--------------------------------------------------------|


                                       
--------------------------------------|
--------------------------------------|
--7--6--3--7--6--3--------------------|
--------------------8--7--5--8--7--5--|
--------------------------------------|
--------------------------------------|


                                                         
--------------------------------------------------------|
--------------------------------------------------------|
--------------------------------------------------------|
-----------------------------5--5--5--7--7--7--8--8--8--|
--4--4--4--5--5--5--7--7--7-----------------------------|
--------------------------------------------------------|


                                                
-----------------------------------------------|
-----------------------------------------------|
-----------------------------------------------|
-----------------------------------------------|
--4--4--4--5--5--5--7--7--7--------------------|
-----------------------------6--6--6--5--5--5--|


                                                         
--------------------------------------------------------|
--------------------------------------------------------|
--------------------------------------------------------|
-----------------------------5--5--5--7--7--7--8--8--8--|
--4--4--4--5--5--5--7--7--7-----------------------------|
--------------------------------------------------------|


                                       
--------------------------------------|
--------------------------------------|
--7--6--3--7--6--3--------------------|
--------------------8--7--5--8--7--5--|
--------------------------------------|
--------------------------------------|


                                                         
--------------------------------------------------------|
--------------------------------------------------------|
--------------------------------------------------------|
-----------------------------5--5--5--7--7--7--8--8--8--|
--4--4--4--5--5--5--7--7--7-----------------------------|
--------------------------------------------------------|


                                                
-----------------------------------------------|
-----------------------------------------------|
-----------------------------------------------|
-----------------------------------------------|
--4--4--4--5--5--5--7--7--7--------------------|
-----------------------------6--6--6--5--5--5--|


                                                         
--------------------------------------------------------|
--------------------------------------------------------|
--------------------------------------------------------|
-----------------------------5--5--5--7--7--7--8--8--8--|
--4--4--4--5--5--5--7--7--7-----------------------------|
--------------------------------------------------------|


                                                                   
--------------------------------------||--------------------------|
--------------------------------------||--------------------------|
--7--6--3--7--6--3--------------------||*-------------------------|
--------------------8--7--5--8--7--5--||*-------------------------|
--------------------------------------||---------------------3----|
--------------------------------------||---0--0--0--0--0--0--1----|


                                                         
------------------------------|-------------------------|
------------------------------|-------------------------|
------------------------------|-------------------------|
------------------------------|-------------------------|
--------------------4----5~---|--------------------3----|
--0--0--0--0--0--0--5----6~---|--0--0--0--0--0--0--1----|


                                                                                
---------------------------------------||--------------------------------------|
---------------------------------------||--------------------------------------|
--------------------------------------*||--------------------------------------|
--------------------------------------*||--------------------------------------|
---------------------------------------||--------------------------------------|
--4--4--6--6--7--7--6--6--4--4--3--3---||--4--4--6--6--7--7--6--6--7--7--9--9--|


                                                                                
---------------------||------------------------------|-------------------------|
---------------------||------------------------------|-------------------------|
---------------------||*-----------------------------|-------------------------|
------------------4--||*--------6------7-------------|----------------------4--|
------------------5--||-----5-5-4--0-0-5--5-5-----4--|----------------------5--|
--7----9----10-------||-----------------------0-0-2--|----2--2--2--2--2--2-----|


                                                          
-----------------------------|--------------------------||
-----------------------------|--------------------------||
-----------------------------|-------------------------*||
--------6------7-------------|----------------------4--*||
----5-5-4--0-0-5--5-5-----4--|------------5----4----5---||
----------------------0-0-2--|----2-2-2-2-7----5--------||


                                                                  
------------------------|----------------------------------------|
------------------------|----------------------------------------|
------------------------|----------------------------------------|
------------------------|--------6---6-7-6-7-9-7h9h7-6h7h6-4h6h4-|
------------5----4------|--9-7-9---9-----------------------------|
----2-2-2-2-7----5------|----------------------------------------|


                                                             
-------------------|----------------------------------------|
-------------------|----------------------------------------|
-------------------|----------------------------------------|
--4----------------|--------6---6-7-6-7-9-7h9h7-6h7h6-4h6h4-|
--4----------------|--9-7-9---9-----------------------------|
--2----------------|----------------------------------------|


                                                             
---------------------------|--------------------------------|
---------------------------|--------------------------------|
---------------------------|--------------------------------|
--4--------11-11---11-11---|--------------------------------|
--4--------9--9----9--9----|--------------5-5-4-4-----4/-5--|
--2------------------------|--3-3-3-3-3-3---------6-6-5/-6--|


                                                                      
----------------------------|----------------------------------------|
----------------------------|----------------------------------------|
----------------------------|--3h4h3---------------------------------|
--------7-7-6-6-----6/-7----|---------5--4--2--5--4--2h4h2--------2--|
----5-5---------8-8-7/-8----|-------------------------------5--4-----|
----------------------------|----------------------------------------|


                                                                 
----------------------------------|-----------------------------|
----------------------------------|-----------------------------|
----------------------------------|-----------------------------|
----------------------------------|--------4--------5--4--------|
--5--4--2--1--1/-2--1-------------|-----1--------2-----1--------|
-----------------------2/-3--2~---|--2--------3--------2--------|


                                         
----------------------------------------|
----------------------------------------|
----------------------------------------|
--4------------------4------------------|
--2--2-2-2--2--2--2--2--2-2-2--2--2--2--|
----------------------------------------|


                                                   
--------------------------------------------------|
--------------------------------------------------|
--------------------------------------------------|
--------------------------------------------------|
--2-2-2-2-2-2-2-2-2-2-2-2-2-2-2-2-2-2-2-2-2-2-2-2-|
--------------------------------------------------|


                                           
|-----------------------------------------|
|-----------------------------------------|
|*----------------------------------------|
|*--4------------------4------------------|
|---2--2-2-2--2--2--2--2--2-2-2--2--2--2--|
|-----------------------------------------|


                                        
---------------------------------------|
---------------------------------------|
---------------------------------------|
-----------------------------5-4-2-----|
-----2--5--4--2-----------5---------5--|
--3--------------3--2--5---------------|


                                                                                
----------------------------------------|--------------------------------------|
----------------------------------------|--------------------------------------|
----------------------------------------|--------------------------------------|
--4------------------4------------------|--------------------------------------|
--2--2-2-2--2--2--2--2--2-2-2--2--2--2--|-----2--5--4--2--------------------5--|
----------------------------------------|--3--------------3--2--0--2--3--5-----|


                                         
----------------------------------------|
----------------------------------------|
----------------------------------------|
--4------------3/-4--4------------------|
--2--2-2-2--2--1/-2--2--2-2-2--2--2--2--|
----------------------------------------|


                                                                            
---------------------------------------|-----------------------------------|
---------------------------------------|-----------------------------------|
---------------------------------------|---------------------------11------|
-----------------------------5-4-2-----|--4------------3--4--4-----9-------|
-----2--5--4--2-----------5---------5--|--2--2-2-2--2--1--2--2--2--9-------|
--3--------------3--2--5---------------|-----------------------------------|


                                                                      
-------------------------------||------------------------------------|
-------------------------------||------------------------------------|
------------------------------*||------------------------11----11----|
-------------------------7/---*||--4------------3/-4--4--9-----9-----|
-----2--5--4--2-----4----5/----||--2--2-2-2--2--1/-2--2--9-----9-----|
--3--------------3--2----------||------------------------------------|


                                                                         
------------------------------||----------------------------------------|
------------------------------||----------------------------------------|
------------------------------||*---------------------------------------|
-------------------------7/---||*--4--------7--------6--------11--------|
-----2--5--4--2-----4----5/---||---2--2--2--5--5--5--4--4--4--9---9--9--|
--3--------------3--2---------||----------------------------------------|


                                                                              
---------------------------------------||------------------------------------|
---------------------------------------||--7-8-7-----------------------------|
--------------------------------------*||---------9--7--6--7--6-7-6----------|
--4--------7--------------------------*||----------------------------7/-4----|
--2--2--2--5--5--5--2--4--5--1--2--4---||------------------------------------|
---------------------------------------||------------------------------------|


                                                      
-------------------------------------------7-9-10-12-|
------------------------------------7-8-10-----------|
--7-6-4-------9-7-6-----------6-7-9------------------|
--------7-5-4-------9-7-5-7-9------------------------|
-----------------------------------------------------|
-----------------------------------------------------|


                            
--12b-----10--9--10--------|
---------------------------|
---------------------------|
---------------------------|
---------------------------|
---------------------------|


                                                                     
-----------------------------------------15-17-19-21-21-21b---|----||
--------------------------------15-17-19----------------------|----||
-----------------------15-16-18-------------------------------|----||
--------------14-16-17----------------------------------------|----||
--13-14-16-17-------------------------------------------------|----||
--------------------------------------------------------------|----||


-mail
Last updated: 13 June 2003