Misanthrope
GB
English


Tablatures
Le Roman Noir
.

Transcrit par Aymeric Fontaine.
Intro clavier   0:00


PART 1 :   0:45
   GUITAR1
|------------------------------------------------------------------------------------------------------|
|------------------------------------------------------------------------------------------------------|
|--7\6/7-----7\6/7-----7\6/7--------------7\6/7-----7\6/7-----7\6/7-10101010121212121414141488888ah----|
|--7\6/7-8---7\6/7-7---7\6/7--------------7\6/7-8---7\6/7-7---7\6/7------------------------------------|
|--5\4/5-8---5\4/5-7---5\4/5-888866666----5\4/5-8---5\4/5-7---5\4/5------------------------------------|
|--------6---------5----------------------------6---------5--------------------------------------------|


   GUITAR2
|-----------------------------------------------------------------------------------------------------|
|-----------------------------------------------------------------------------------------------------|
|--7\6/7-----7\6/7-----7\6/7-10101010121212121414141488888\----7\6/7-----7\6/7-----7\6/7--------------|
|--7\6/7-8---7\6/7-7---7\6/7-----------------------------------7\6/7-8---7\6/7-7---7\6/7--------------|
|--5\4/5-8---5\4/5-7---5\4/5-----------------------------------5\4/5-8---5\4/5-7---5\4/5-888866666----|
|--------6---------5-------------------------------------------------6---------5----------------------|



PART 2 : (X 4)   1:02
   BOTH GUITARS
|----------------------------------------------------------------|
|----------------------------------------------------------------|
|----------------------7-6--2-----2-----5-4----------------------|
|----2-----2-----4-----7-6--2-----2-----5-4-------3p2h3p2h3p2----|
|----2-----2-----4-----5-4--0-0-0-0-0-0-3-2-2-2-2----------------|
|----0-0-0-0-0-0-2-2-2-------------------------------------------|
       . .   . .   . .        . .   . .     . . .


PART 3 :   1:22
   GUITAR1						   GUITAR2 (X 2)
|---------------------------------------------------|	|-----------------------------------------------------------|
|---------------------------------------------------|	|-----------------------------------------------------------|
|----4-2-1-2-1---4-2-1-----4-2-1-2-1----------------|	|----------------------7-6--2-----2-----5-4----------------------|
|--------------2-------2-4-----------2-2-4-2-1-2----|	|----2-----2-----4-----7-6--2-----2-----5-4-------3p2h3p2h3p2----|
|---------------------------------------------------|	|----2-----2-----4-----5-4--0-0-0-0-0-0-3-2-2-2-2----------------|
|---------------------------------------------------|	|----0-0-0-0-0-0-2-2-2-------------------------------------------|
     ...........................................	       . .   . .   . .        . .   . .     . . .


PART 4 :   1:32
   GUITAR1						   GUITAR2
|-----------------------------------------------------|	|-------------------------------------------------------------|
|-----------------------------------------------------|	|-------------------------------------------------------------|
|-----------------------------------------------------|	|-------------------------------------------------------------|
|--7-7-7-7---10-10-10-10---5-5-5-5-------8-8-8-8------|	|--7-7-7-7-------10-10-10-10-------5-5-5-5-------8-8-8-8------|
|--7-7-7-7---10-10-10-10---5-5-5-5-------8-8-8-8------|	|--7-7-7-7-------10-10-10-10-------5-5-5-5-------8-8-8-8------|
|--5-5-5-5---8--8--8--8----3-3-3-33333---6-6-6-66666--|	|--5-5-5-55555---8--8--8--8-8888---3-3-3-33333---6-6-6-66666--|
                                  ....          ....	          ....              ....          ....          ....


PART 5 : (X 2)   1:42
   BOTH GUITARS
|-----------------------------|
|-----------------------------|
|-----------------------------|
|----7----10----5----8--------|
|----7----10----5----8--------|
|----55555-888883333366666----|
      ....  .... .... ....


PART 6 :   2:01
   GUITAR1
|-------------------------------------------------------------------------|
|------------10--------------10-----------------9-------------9-----------|
|----------9----------9----9----------9-------9--------9----9--------9----|
|-------11---------11--------------11-------9--------9-------------9------|
|----12---------12------12------12-------11-------11-----11-----11--------|
|-------------------------------------------------------------------------|
      .  .       .  .    .       .  .     . .      . .    .      . .

|----14----------12-------14----------12--------------------------------------------------------------|
|-------14----------12-------14----------12---------------------10---------10-9------10---------------|
|----------14-13-------13-------14-13-------13-14p13h14p13-11-9----11-10-9------11-9------------------|
|---------------------------------------------------------------------------------------11-10-9-------|
|-----------------------------------------------------------------------------------------------12----|
|-----------------------------------------------------------------------------------------------------|


|-----------------------------------------------------------------------------------------------------|
|---------------------------------------------------------------------------------9h11p9------10ah----|
|---------9----11------9----11------9----11-------9----11------9----11-------9-----------11-9---------|
|------11---11------11---11------11---11-------11---11------11---11-------11---11---------------------|
|----9------------9------------9------------11------------9------------11-----------------------------|
|-----------------------------------------------------------------------------------------------------|


   GUITAR2
|-------------------------------------------------------------------------------------------------|
|-------------------------------------------------------------------------------------------------|
|-------------------------------------------------------------------------------------9-----------|
|----7--7--7--7--2--2--2--2--12----12----12----12----11--11--2--2--9--9--9--9--7---11-9-7--7------|
|----7--7--7--7--2--2--2--2--12----12----12----12----11--11--2--2--9--9--9--9--7---11-7-7--7------|
|----555555555555000000000000101010101010101010101010-999-999000000777777777777555--9---555555----|
      .. .. .. .. .. .. .. ..   . .   . .   . .   . .  ..  .. .. .. .. .. .. .. ..       .. ..



PART 7 :   2:17
   GUITAR1 (X 2) + GUITAR2 (dans un premier temps...)
|------------------------------------------------------------------------------|
|------------------------------------------------------------------------------|
|-----------------------------------------------------------------------9------|
|---7----7----2----2----12--------12--------11----2----9----9----7---11-9-7----|
|---7----7----2----2----12--------12--------11----2----9----9----7---11-7-7----|
|---5555555555000000000010101010101010101010-99999000007777777777555--9---5----|
     .... .... .... ....   . . . .   . . . .  .... .... .... .... ..

   GUITAR2 (...ensuite)
|--------------------------------------------------------------------------------------------------|
|--------------------------------------------------------------------------------------------------|
|--------------------------------------------------------------------------------------9-----------|
|-----------------------------------------------------------------------------------11-9-7---------|
|-----------------------------------------------------------------------------------11-7-7---------|
|----5555...(X16)0000...(X16)10101010...(X16)9999...(X8)0000...(X8)7777...(X16)5555--9---5-5555----|
     ..............................................................................        ....


PART 8 :   2:49
   GUITAR1						   GUITAR2
|----------------------------------------|		|----------------------------------------|
|----------------------------------------|		|----------------------------------------|
|----------------------------------------|		|----9-9-9----9-9-9----9-9-9----9-9-9----|
|----7-7-7----7-7-7----7-7-7----7-7-7----|		|----9-9-9----9-9-9----9-9-9----9-9-9----|
|----7-7-7----7-7-7----7-7-7----7-7-7----|		|----7-7-7----7-7-7----7-7-7----7-7-7----|
|----5-5-5----5-5-5----5-5-5----5-5-5----|		|----------------------------------------|



PART 9 : (X 2)   2:59
   GUITAR1
|----------------------------------------------------------------------------------|
|--------------------------------------------------------------------12\-----------|
|------------------------------9-9-9-7-7-10-9---------------------------9\---------|
|------------------------------7-7-7-5-5--8-7-----------------------------9\2-2----|
|----------------------------------------------------------------------------------|
|----3-5-55-55-555555-55-55-55----------------3-5-55-55-555555-55-55---------------|
         .. .. ...... .. .. ..                    .. .. ...... .. ..

   GUITAR2
|------------------------------------------------------------------------------------|
|--------------------------------------------------------------------12\-------------|
|------------------------------9-9-9-7-7-10-9---------------------------9\-----------|
|------------------------------7-7-7-5-5--8-7-----------------------------9\2-2ah----|
|------------------------------------------------------------------------------------|
|----3-5-55-55-555555-55-55-55----------------3-5-55-55-555555-55-55-----------------|
         .. .. ...... .. .. ..                    .. .. ...... .. ..


PART 10 :   3:20
   GUITAR1
|-----------------------------------------------------------------------------------|
|-----------------------------------------------------------------------------------|
|-----------------------------------------------------------------------------------|
|----77-77-77-77-77-77-77-77---------------77-77-77-77-77-77-77-77------------------|
|----77-77-77-77-77-77-77-77-5h6p5h6p5h6p5-77-77-77-77-77-77-77-77-5h6p5h6p5h6p5----|
|----55-55-55-55-55-55-55-55---------------55-55-55-55-55-55-55-55------------------|
     .. .. .. .. .. .. .. ..               .. .. .. .. .. .. .. ..

   GUITAR2
|-----------------------------------------------------------------------------------|
|----------------------------7h8p7h8p7h8p7-------------------------7h8p7h8p7h8p7----|
|-----------------------------------------------------------------------------------|
|----77-77-77-77-77-77-77-77---------------77-77-77-77-77-77-77-77------------------|
|----77-77-77-77-77-77-77-77---------------77-77-77-77-77-77-77-77------------------|
|----55-55-55-55-55-55-55-55---------------55-55-55-55-55-55-55-55------------------|
     .. .. .. .. .. .. .. ..               .. .. .. .. .. .. .. ..


PART 11 :   3:28				   _   _							   _   _
   GUITAR1					    \_/		   GUITAR2				            \_/
|-------------------------------------------------5-------|	|---------------------------------------------------------|
|---------------------------------------------------------|	|-------------------------------------------------7-------|
|---------------------------------------------------------|	|---------------------------------------------------------|
|--7--77--7-------10--1010--10-----------8--88--8---------|	|--7--77--7-------10--1010--10-----------8--88--8---------|
|--7--77--7-------10--1010--10-----------8--88--8---------|	|--7--77--7-------10--1010--10-----------8--88--8---------|
|--55555555555555--888-8-888-8888888-----66666666---------|	|--55555555555555--888-8-888-8888888-----66666666---------|
    ..  .. ......   ..    ..  ......      ..  ..		    ..  .. ......   ..    ..  ......      ..  ..
NB : La dernière note (pour les guitares 1 et 2) doit se faire avec un effet Pitch Shifter)


PART 5   3:38


PART 12 :   3:47
   GUITAR1 (With wah wah)					   GUITAR2
|-------------------------------------------------------5-8\-|	|------------------------------------------------------|
|-----5--7-5ah--3h5p3---------------------------------6------|	|------------------------------------------------------|
|-6/7-----------------5--5-4ah--4-5-4-7--7-5--5-7-5----------|	|------------------------------------------------------|
|---------------------------------------------------7--------|	|-7--77--7----10--1010--10----5--55--5----8--88--8-----|
|------------------------------------------------------------|	|-7--77--7----10--1010--10----5--55--5----8--88--8-----|
|------------------------------------------------------------|	|-555555555555-888-8-888-88888333333333333666666666666-|
								   ..  .. ....  ..    ..  .... ..  .. .... ..  .. ....
NB (pour la guitare 1) : Le dernier slide doit se faire en saccadé.


PART 5   3:57


PART 13 :   4:06
   GUITAR1
|--------------------------------------------------------15h17h19--15h17h19--15h17h19-19p17p15-19p17p15----|
|----17--17h18p17----17h18p17----17h18p17-------------17---------------------------------------------------|
|-----------------19----------19----------19-17-16-17------------------------------------------------------|
|----------------------------------------------------------------------------------------------------------|
|----------------------------------------------------------------------------------------------------------|
|----------------------------------------------------------------------------------------------------------|

|----------------------------------------------------------------------------------------------------|
|----17-17h18p17p15-17p15----15-------15-------------------------------------------------------------|
|-------------------------17----17-16----17-16-14----------14----------------------------------------|
|-------------------------------------------------17-15-17----17-15-14----------14-------------------|
|----------------------------------------------------------------------17-16-17----17-15-14----------|
|-------------------------------------------------------------------------------------------17-15----|
Il manque la fin du solo... Si quelqu'un les trouve, merci de m'écrire à l'adresse mail ci-dessous.

   GUITAR2
|------------------------------------------------------------|
|------------------------------------------------------------|
|------------------------------------------------------------|
|----7--77--7----10--1010--10----5--55--5----8--88--8--------|
|----7--77--7----10--1010--10----5--55--5----8--88--8--------|
|----555555555555-888-8-888-88888333333333333666666666666----|
      ..  .. ....  ..    ..  .... ..  .. .... ..  .. ....


PART 9 (X 2)   4:22
PART 10   4:42
PART 1   4:50
PART 2 (X 4)   5:08
PART 3   5:28
PART 4   5:38
PART 5 (X 2)   5:47
PART 6   6:06
PART 7   6:22


OUTRO :   6:56
   GUITAR1
|-----------------|
|-----------------|
|----6-4-6-4------|
|------------7----|
|-----------------|
|-----------------|


KEYOARD   7:01
J espère que vous apprécierez ces tablatures malgré les quelques erreurs qui s'y glissent. Pour toutes corrections, encouragements, insultes ou autre, me contacter : cannibal.invasion@caramail.com

Bien évidemment, les mesures ne sont pas exactes, il faut se référer au morceau pour avoir les bons temps.

-mail
Mise à jour: 24 Juillet 2001