Misanthrope
FR
Français


Tablatures
The Grey Orchard
.

Trancribed by Aymeric Fontaine.
PART 1 : (X 2)   0:00
   GUITAR1
|-----------------------------------------------7----7-5--5h7p5--5-5------------|
|------------------------------------------5--8---8--------------------5--------|
|-----------------2----4--------4------------------------------------7---5ah----|
|----2----------2--------4--5-4----4-5-4----------------------------------------|
|----2--------2--------------------------5--------------------------------------|
|----0--3-2-3-------3-----------------------------------------------------------|


   GUITAR2
|-------------------------------------------------------------------------------|
|-------------------------------------------------------------------------------|
|-----------------2----4--------4---------------4----4--------------------------|
|----2----------2--------4--5-4----4-5-4---2--5---5----4--4h5p4--4-4---2--------|
|----2--------2--------------------------5---------------------------5----------|
|----0--3-2-3-------3----------------------------------------------------12\----|



PART 2 : (X 2)   0:43
   BOTH GUITARS (dans un premier temps...)				   GUITAR2 (...ensuite)
|------------------------------------------------------------|	|-----------------------------------------------|
|-------------------------------5---------3-3-3-3-3(4)3-3-3--|	|------------------------5----------------------|
|--------4----------------------4-----4----------------------|	|--------4---9ah...(X6)--4-----4---10ah...(X7)--|
|--2-----4---3-3-3-3-3(4)3-3-3--2-2-2-4----------------------|	|--2-----4---------------2-2-2-4----------------|
|--2-----2-2--------------------------2-2--------------------|	|--2-----2-2-------------------2-2--------------|
|--0-0-0-----------------------------------------------------|	|--0-0-0----------------------------------------|
     . .   .                      . .   .			     . .   .               . .   .


PART 3 :   1:10
   BOTH GUITARS
|-----------------------------------------------------------------------------|
|----------5--5---------------------------------------------------------------|
|----------4--4-------5-4-------------------------5-4-------------------------|
|----2--2--2--2---2---5-4-5-4----2---5-----5--2---5-4-5-4----2---6-5-----5----|
|----2--2---------2---3-2-----5--2---5-5-5----2---3-2-----5--2---6-5-5-5------|
|----0--0---------0--------------0---3--------0--------------0---4-3----------|



PART 4 :   1:28
PART 4a :   (X 2)						PART 4b :   (X 2)
   BOTH GUITARS							   BOTH GUITARS
|---------------------------------------------------------|	|----------------------------------------------------|
|---------------------------------------------------------|	|----------------------------------------------------|
|--------------5-4----------------------------------------|	|------------5-4-------------------------------------|
|--2-------2---5-4-------------2-------2---6-5------------|	|--22222-2---5-4-------------22222-2---6-5-----------|
|--2-------2---3-2-2-2-2-10\---2-------2---6-5------------|	|--22222-2---3-2---101099----22222-2---6-5-------10--|
|--0-0-0-0-0-0-----------------0-0-0-0-0-0-4-3-3-3-3-10\--|	|--00000-0---------------10--00000-0---4-3---1010----|
     . . .   .     . . .	 . . .   .     . . .		   .....               	     .....
NB : Les slides sont à faire en saccadé)


PART 6 : (X 3)   1:56
   BOTH GUITARS
|-------------------------------------------------------------|
|-------------------------------------------------------------|
|-------------------------------------------------------------|
|-------------------------------------------------------------|
|--------3-4--4-3-1--4-3----------3--4-3-1--4-3---------------|
|----1-4-----------------4--1-4-0---------------4--1-4-0-1----|



PART 7 : (X 2)   2:39
   BOTH GUITARS
|----------------------------------------|
|----------------------------------------|
|------5-4-------------------------------|
|--2---5-4---5-4------2---6-5-------5----|
|--2---3-2-------5----2---6-5---5-5------|
|--0------------------0---4-3------------|



PART 4a (X 2)   2:52


PART 8 :   3:06
PART 8a :										PART 8b :
   BOTH GUITARS										   BOTH GUITARS (X 4)
|-------------------------------------------------------------------------------|	|-----------------------|
|-------------------------------------------------------------------------------|	|-----------------------|
|-------------------------------------------------------------------------------|	|-----------------------|
|------------------------------------------------------6---------------6-4-6----|	|------8---9p8P6--------|
|------6h7-6h7---6-4-6---6h7-6h7---4-6-4---6h7-6h7---6---6---6h7-6h7------------|	|----6---6-------6-9----|
|----4---------4-------4---------4-------4---------4-------4---------4----------|	|-----------------------|


PART 8c :
   BOTH GUITARS (X 2)
|-----------------------------------|
|-----------------------------------|
|-----------------------------------|
|----------------6-----------4-6----|
|------6-7-6-4-6-----6-7-6-4--------|
|----4-------------4----------------|



PART 8a   3:36
PART 8b (X 4)   3:43
PART 1 (X 2)   3:55
PART 4   4:40
PART 2   5:07


PART 9 :   5:21
   BOTH GUITARS
|---------------------------|
|-----------5--5-------5----|
|-----------4--4-------4----|
|----2--2---2--2---2---2----|
|----2--2----------2--------|
|----0--0----------0--------|



PART 10 :   5:28
   GUITAR1
|--------------------------------------------------------------------------------------------------------------|
|--------------------------------------------------------------------------------------------------------------|
|-------6-4-----4----6-4-----4----6-4-----4----6-4-----4-------------------------------------------------------|
|----6------4-6---6------4-6---6------4-6---6------4-6---------------------------------------------------------|
|----------------------------------------------------------7-5-----5----7-5-----5----7-5-----5----7-5-----5----|
|--------------------------------------------------------7-----5-7---7------5-7---7------5-7---7------5-7------|


   GUITAR2
|------------------------------------------------------------------------------------------------------------------|
|------------------------------------------------------------------------------------------------------------------|
|------------------------------------------------------------------------------------------------------------------|
|-------7-6-----6----7-6-----6----7-6-----6----7-6-----6-----------------------------------------------------------|
|----7------6-7---7------6-7---7------6-7---7------6-7-------7-5-----5----7-5-----5----7-5-----5----7-5-----5------|
|---------------------------------------------------------7------5-7---7------5-7---7------5-7---7------5-7---7----|



PART 11 :   5:49
   GUITAR1
|-----------------------------------------------------------------------------------------|
|--------------------------------------------------------7--7-7-5--5-----5--5-5-----------|
|-------6-4-----4----6-4-----4----6-4-----4----6-4-----4-------------6----------7--7-4----|
|----6------4-6---6------4-6---6------4-6---6------4-6------------------------------------|
|-----------------------------------------------------------------------------------------|
|-----------------------------------------------------------------------------------------|


   GUITAR2
|-----------------------------------------------------------------------------------------|
|-----------------------------------------------------------------------------------------|
|--------------------------------------------------------7--7-7-6--6-----5--5-5-4--4------|
|-------7-6-----6----7-6-----6----7-6-----6----7-6-----6-------------7---------------5----|
|----7------6-7---7------6-7---7------6-7---7------6-7------------------------------------|
|-----------------------------------------------------------------------------------------|



PART 12 :   6:06
   GUITAR1
|-----------------------------------------------|
|-----------------------------------------------|
|----------------------------6-4-----4----------|
|----------2-2-2-2---------------4-6---6\--2----|
|----7--8--2-2-2-2--7--8--7----------------2----|
|----------0-0-0-0-------------------------0----|
           . . . .

   GUITAR2
|-----------------------------------------------|
|-----------------------------------------------|
|-----------------------------------------------|
|----------2-2-2-2-----------7-6-----6-----2----|
|----7--8--2-2-2-2--7--8--7------5-7---7\--2----|
|----------0-0-0-0-------------------------0----|
           . . . .
J espère que vous apprécierez ces tablatures malgré les quelques erreurs qui s'y glissent. Pour toutes corrections, encouragements, insultes ou autre, me contacter : cannibal.invasion@caramail.com

Bien évidemment, les mesures ne sont pas exactes, il faut se référer au morceau pour avoir les bons temps.

-mail
Last updated: 24 July 2001