Misanthrope
FR
Français


Tablatures
Misanthrope Necromancer
.

Trancribed by Aymeric Fontaine.
Intro clavier   0:00


PART 1 : (X 2)   0:43
   BOTH GUITARS
|--------------------------------------------------|
|--------------------------------------------------|
|--------4----5------------------------------------|
|----2---4----5---------2---------3----------------|
|----2---2--2-3---3-3-3-2---------3----------------|
|----0------------------0---3-2-1-1-1-1-1-1-3-1----|
            .     . . .             . . .

|------------------------------------------------|
|------------------------------------------------|
|--------4----5----------------------------------|
|----2---4----5---------2---------3--------------|
|----2---2--2-3---3-3-3-2---------3--------------|
|----0------------------0---3-2-1-1-1-1-1-6ah----|
            .     . . .             . . .

PART 2 : (X 4) 	 1:13
   BOTH GUITARS
|------------------------------------------------------------------------|
|------------------------------------------------------------------------|
|------------------------------------------------------------------------|
|------------------------------------------------------------------------|
|----7-0-0-5-0-0-10-0-0-3-0-0-3-0-3-0-2-0-0-2-0-0-3-0-0-2-0-0-3-0-5-0----|
|------------------------------------------------------------------------|
     . . . . . .  . . . . . . . . . . . . . . . . . . . . . . . . . .


PART 1 (X 2)   1:43
PART 2 (X 4)   2:12



PART 3 : (X 2)   2:42
   BOTH GUITARS
|----------------------------------------|
|----------------------------------------|
|----9------9-7-5-7----------------------|
|----9------9-7-5-7-7--------------------|
|----77777777-5-3-5-7-----------5-7ah----|
|-------------------5555555-5-7----------|
      ......         ......


PART 4   2:55
   GUITAR1 (X 2)
|----------------------------------------|
|----------------------------------------|
|----9------9-7-5-7----------------------|
|----9------9-7-5-7-7--------------------|
|----77777777-5-3-5-7-----------5-7ah----|
|-------------------5555555-5-7----------|
      ......         ......

   GUITAR2
|---------------------------------------------------------------------------|
|-------------------------------------------------10------------12-10-12----|
|------------12-11-12----9------------12-11----------12-11----9-------------|
|----10-9-10----------12---12-10-12---------12-10----------12---------------|
|---------------------------------------------------------------------------|
|---------------------------------------------------------------------------|

|---------------------------------------------------------------------------|
|------------12----10----12-10----10---12-10--------------------12-10-12----|
|-------9-------12----11-------12------------11----11-9-------9-------------|
|----12---12------------------------------------12------12-11---------------|
|---------------------------------------------------------------------------|
|---------------------------------------------------------------------------|



PART 3   3:08
PART 4   3:15
PART 2 (X 4)   3:21


PART 5 :   3:50
   GUITAR1						   GUITAR2 (X 2)
|-----------------------------------------|		|------------------------|
|-----------------------------------------|		|------------------------|
|-----------------------------------------|		|------------------------|
|-------------------7---------------------|		|-------------------7----|
|----7-------10--10-----7-------3--3-5----|		|----7-------10--10------|
|------0-0-0--------------0-0-0-----------|		|------0-0-0-------------|



PART 6 :   3:58
   GUITAR1							   GUITAR2
|---------------------------------7-5---5-7----|		|----------------------------------------------|
|-------------------------------------8--------|		|---------------------------------8-7-8-7-5----|
|----------3---5----------5-5-7----------------|		|----------3---5----------5-5-7----------------|
|----------3---5--2-------5-5-7----------------|		|----------3---5-2--------5-5-7----------------|
|----2-----1-1-3----------3-3-5----------------|		|----2-----1-1-3----------3-3-5----------------|
|----0-0-0---------0-0-0-----------------------|		|----0-0-0---------0-0-0-----------------------|
       . .   .     . . .					       . .   .     . . .


PART 1   4:05


PART 7 :   4:20
   BOTH GUITARS (Dans un premier temps...)
|-----------------------------------------------------|
|-----------------------------------------------------|
|--------4---5----------------------------------------|
|----2---4---5-------------2---------3----------------|
|----2---2-2-3-3-3-3-3-3-3-2---------3----------------|
|----0-0-------------------0---3-2-1-1-1-1-1-1-3-1----|
       .   .   . . . . . .             . . .


   GUITAR1 (...ensuite)						   GUITAR2 (...ensuite)
|--------------------------------------------7-5---5-7----|	|---------------------------------------------------------|
|------------------------------------------------8--------|	|--------------------------------------------8-7-8-7-5----|
|--------4---5--------------------------------------------|	|--------4---5--------------------------------------------|
|----2---4---5-------------2---------3--------------------|	|----2---4---5-------------2---------3--------------------|
|----2---2-2-3-3-3-3-3-3-3-2---------3--------------------|	|----2---2-2-3-3-3-3-3-3-3-2---------3--------------------|
|----0-0-------------------0---3-2-1-1-1-1-1--------------|	|----0-0-------------------0---3-2-1-1-1-1-1--------------|
       .   .   . . . . . .             . . .			       .   .   . . . . . .             . . .

J'espère que vous appréciez ces tablatures malgré les quelques erreurs qui s'y glissent. Pour toutes corrections au autre, me contacter : cannibal.invasion@caramail.com Bien évidemment, les mesures ne sont pas exactes, il faut se référer au morceau pour avoir les bons temps.
-mail
Last updated: 15 April 2001