Misanthrope
GB
English


Tablatures
Mylène
.

Transcrit par Aymeric Fontaine.
PART A : (X 3)   0:00
    GUITAR1
|-----------------------------------------------------------------------------------------|
|----------------------------------------------------------------------------3-5-5-3-5----|
|----4-4-4-4-4-2------------------7-9-4---4-4-4-4-4-2------------------4-4-4--------------|
|----------------4---2-4-5-4-2-1--7-9-4---------------4---2-4-5-4-2-1---------------------|
|------------------5--------------5-8-2-----------------5---------------------------------|
|-----------------------------------------------------------------------------------------|
		     . .   . .                            . .   . .

    GUITAR2
|-----------------------------------------------------------------------------------------|
|----------------------------------------------------------------------------3------------|
|----4-4-4-4-4-2------------------7-9-4---4-4-4-4-4-2------------------4-4-4-------4------|
|----------------4---2-4-5-4-2-1--7-9-4---------------4---2-4-5-4-2-1----------5-5---5----|
|------------------5--------------5-8-2-----------------5---------------------------------|
|-----------------------------------------------------------------------------------------|
		     . .   . .                            . .   . .


PART B :   0:58
   GUITAR1
|---------------------------------------------------------------------------------|
|---------------------------------------------------------------------------------|
|----7--7-5---5-5h7-5---7-5--7-5-5-5-7-5-----3--7\5-5\3-3/5-5---3-2------5---5----|
|----7------7-----------7-5--------------7---3------------------3-2--5-7---7------|
|----5------------------5-3------------------1------------------1-0---------------|
|---------------------------------------------------------------------------------|

   GUITAR2
|---------------------------------------------------------------------------------|
|---------------------------------------------------------------------------------|
|----7------------------7-5------------------3------------------3-2---------------|
|----7--8-7---7-7h8-7---7-5--8-7-7-7-8-7-----3--8\7-7\5-5/7-7---3-2----5-7-5-7----|
|----5------8-----------5-3--------------8---1------------------1-0--8------------|
|---------------------------------------------------------------------------------|



PART C :   1:12
   GUITAR1
|---------------------------------------------------------------------------------|
|---------------------------------------------------------------------------------|
|----7--7-5---5-5h7-5---7-5--7-5-5-5-7-5-----3--7\5-5\3-3/5-5---3-2------5---5----|
|----7------7-----------7-5--------------7---3------------------3-2--5-7---7------|
|----5------------------5-3------------------1------------------1-0---------------|
|---------------------------------------------------------------------------------|

   GUITAR2
|-----------------------------------------------------------5----|
|--------6-5---6-5-------5-----5------------------------5-5------|
|----7-------7-----7-5-----7-5---7-5-----7-5---7-5---------------|
|------------------------------------8-------8-----8-7-----------|
|----------------------------------------------------------------|
|----------------------------------------------------------------|



PART D : (X 2)   1:25
   GUITAR1
|----------------------------------------------------24-24-24-24--------------------------------------------------------|
|-----------------------------------------------------------------------------------------------------------------------|
|-----------------------------------------------------------------------------------------------------------------------|
|----7-7--7-7--------------------7-7--7-7-------------------------7-7--7-7--------------------7-7--7-7-------------2----|
|----7-7--7-7--7-8-8-8-8-8-7-----7-7--7-7-------------------------7-7--7-7--7-8-8-8-8-8-7-----7-7--7-7-------------2----|
|----5-5--5-5----------------8---5-5--5-5--3-5-5-3-5--------------5-5--5-5----------------8---5-5--5-5--3-5-5-3-5--0----|

   GUITAR2											    \/   \/   \/   \/
|-------------------------------------------24-24-24-24-------------------------------------------24-------------------|
|------------------------------------------------------------------------------------------------------24--------------|
|-----------------------------------------------------------------------------------------------------------24---------|
|--7-7--7-7--7-7--7-7--7-7--7-7----------------------------------------------------------------------------------24----|
|--7-7--7-7--7-7--7-7--7-7--7-7--------------------------7-7--7-7--7-7--7-7--7-7--7-7----------------------------------|
|--5-5--5-5--5-5--5-5--5-5--5-5--3-5-5-3-5---------------5-5--5-5--5-5--5-5--5-5--5-5--3-5-5-3-5-----------------------|



PART E : (X 6)   1:56
   GUITAR
|------------------------------------------|
|------------------------------------------|
|------------------------------------------|
|----------4---5---------11--7--5-5-4------|
|----2-----2---3---2-----9---5--------5----|
|----0-0-0---0-----0-0-0-------------------|
       . .   .       . .


PART D (X 2)   2:32
PART E (X 4)   2:47
PART KEYBOARD   3:12


PART F :   3:34
|----------7-8-7-5-8-7h8h7h8h7h8--7-8-7-5------------------------------8-8-------|
|--------5--------------------------------5-8-5-8-8-7---5----8-8-8-7-7-----5~----|
|------4----------------------------------------------7----7---------------------|
|--------------------------------------------------------------------------------|
|----7---------------------------------------------------------------------------|
|--------------------------------------------------------------------------------|



PART KEYBOARD   3:50


PART G : (X 2)   4:12
   GUITAR 1 (X 2) et GUITAR 2 (First part...)
|-----------------------------------------------------------------------|
|----------8-7--------------------------------------8-------7-----------|
|----9-5-7-7-6-7ah--9---9------9-5--7-------7-------7-------6-7ah--9----|
|----9-5-7-5-4------9---9------9-5--7-------7-------5-555-5-4------9----|
|----7-3-5----------7---7-777-77-3--5-555-5-5-555-5----------------7----|
|-----------------------------------------------------------------------|
			  ... .       ... .   ... .
Je n'ai pas réussi à retranscrire les 2 solos que fait la GUITAR2 en "Second part"... Si vous les trouver, merci de
me contacter (mon mail est ci-dessous)


PART D   4:44
PART E (X 4)   4:59
J espère que vous apprécierez ces tablatures malgré les quelques erreurs qui s'y glissent. Pour toutes corrections, encouragements, insultes ou autre, me contacter : cannibal.invasion@caramail.com

Bien évidemment, les mesures ne sont pas exactes, il faut se référer au morceau pour avoir les bons temps.

-mail
Mise à jour: 13 Janvier 2003