Misanthrope
GB
English


Tablatures
Khopirron
.

Transcrit par Aymeric Fontaine.
PART 1 : (X 2)   0:00
   GUITAR1
|--------------------------------------------------------|
|--------------------------------------------------------|
|--------------------------------------------12-----7----|
|----------------------7--57-----------------12--7--7----|
|----77777777777777777-7--57--77777777777777-10--7--5----|
|----------------------5--35---------------------5-------|
     .................        ..............

   GUITAR2
|-------------------------------------------------------------|
|-------------------------------------------------------------|
|------------------------------------11-12-9------------------|
|----9-10-9-12-10-9-10----------9-10---------12-10-9----12----|
|----------------------12-10-12----------------------12-------|
|-------------------------------------------------------------|



PART 2 :   0:16
   BOTH GUITARS
|-----------------------------------------------------------|
|-----------------------------------------------------------|
|----99-99-99--7-77--99-99----------------------------------|
|----99-99-99--7-77--99-99---999101010777999------777-------|
|----77-77-77--5-55--77-77------------------101010---8ah----|
|-----------------------------------------------------------|
			     ........................

|-----------------------------------------------------------------|
|-----------------------------------------------------------------|
|----99-99-99--7-77--99-99----------------------------------------|
|----99-99-99--7-77--99-99---777999------777----------------------|
|----77-77-77--5-55--77-77---------101010---999101010------999----|
|----------------------------------------------------101010-------|
			     .................................


PART 1 (X 2)   0:32
PART 2   0:48



PART 3 (X 2)   1:04
   BOTH GUITARS
|-------------------------------------------------------------------------------------------|
|-------------------------------------------------------------------------------------------|
|-------------------------------------------------------------------------------------------|
|-------------------------------------------------------------------------------------------|
|----777777777-777-777-777-888888888888-888777555-------------------66666777776666677777----|
|------------------------------------------------888333-333-333-333-------------------------|
     ......... ... ... ... ............ ............... ... ... ... ....................


PART 4 :   1:28
   BOTH GUITARS
|-----------------------------------------------------|
|-----------------------------------------------------|
|-----------------------------------------------------|
|-----------------------------------------------------|
|----777777777-777-777-777-777-777-777-777-777-777----|
|-----------------------------------------------------|
     ......... ... ... ... ... ... ... ... ... ...


Clavier   1:34



PART 5   1:47
   BOTH GUITARS
|-----------------------------------------------------------------------------------------------------|
|-----------------------------------------------------------------------------------------------------|
|--------------------------------------5-----------4-------7-------5-------4--------------------------|
|----------5-4-----4-2-----5-4-----4-2-5-----------4-------7-------5-------4--------5-2---------------|
|------2-3-------2-------2-------2-----3-333..(X12)2-2222225-5555553-3333332-222222-5-2---------------|
|----0---------0-------0-------0----------------------------------------------------3-0-000..(X16)----|
     .         .       .       .         ..........  ......  ......  ......  ......     ..........


PART 6 : (X 2)   2:03
   BOTH GUITARS
|------------------------------------|
|------------------------------------|
|-----------------------------5-4----|
|----2-------5-------7--------5-4----|
|----2-------5-------7--------3-2----|
|----0-0000003-3333335-555555--------|
       ......  ......  ......


PART 5   2:16
PART 2   2:33
PART 1 (X 2)   2:49
PART 2   3:05
PART 3 (X 2)   3:21



PART 7 :   3:45
   BOTH GUITARS
|----------------------------------------------------------------|
|----------------------------------------------------------------|
|-----------------------------------------------------------9----|
|-----------------------------------------------999-999-999------|
|----777777777-777-777-777-101010-101010-101010------------------|
|----------------------------------------------------------------|
     ......... ... ... ... . . .  . . .  . . .  ... ... ...

J'espère que vous appréciez ces tablatures malgré les quelques erreurs qui s'y glissent. Pour toutes corrections au autre, me contacter : cannibal.invasion@caramail.com Bien évidemment, les mesures ne sont pas exactes, il faut se référer au morceau pour avoir les bons temps.
-mail
Mise à jour: 15 Avril 2001