Misanthrope
GB
English


Tablatures
Humiliations Libertines
.

Transcrit par Aymeric Fontaine.
Intro clavier   0:00


PART 1 : (X 2)   0:15
   GUITAR1						   GUITAR2
|--------------------------------------|		|------------------------------------|
|--------------------------------------|		|---------------------------5-----5--|
|--------------------------------------|		|-----------------------------5-7----|
|----7-5-----7------------5-7---5-7----|		|----7-5-----7------------7----------|
|--------5-5-----7-8-7--5-----8--------|		|--------5-5-----7-8-7--5------------|
|--------------5-----------------------|		|--------------5---------------------|



PART 2 : (X 3)   0:25
   GUITAR1					   GUITAR2
|------------------------------------|		|------------------------------------|
|------------------------------------|		|-------------------------5-----5----|
|------------------------------------|		|---------------------------5-7------|
|----------7--------------7---5-7----|		|----------7------------7------------|
|----5-5-5-----7-8-7--5-5---8--------|		|----5-5-5-----7-8-7--5--------------|
|------------5-----------------------|		|------------5-----------------------|



PART 3 :   0:50
   GUITAR1					   GUITAR2
|---------------------------------|		|-----------------------------------|
|---------------------------------|		|-----------------------------------|
|----10-9-------------------------|		|-----------------------------------|
|-----------12-10--------10-------|		|----12-10--------------------------|
|----------------12---13----10----|		|------------10---------10-12-10----|
|---------------------------------|		|---------------13-10---------------|



Bass   0:58


PART 4 : (X 2)   1:07
   GUITAR1
|---------------------------------------------|
|---------------------------------------------|
|--------------------------------------5/7----|
|--------7------5------------3---------5/7----|
|--------7------5------------3---------3/5----|
|--------5------3------------1----------------|

   GUITAR2
|-------------------------------------------|
|-------------------------------------------|
|-----------7-9-----------------9-10-5-7----|
|----9-7--------9--9-10-9----7--------------|
|--------9----------------10----------------|
|-------------------------------------------|



PART 5 :   1:23
   GUITAR1 (X 2)
|--------------------------------|
|--------------------------------|
|--------------------------------|
|--------------------------------|
|----------------------555555----|
|----555555333333111111----------|
     ........................

   GUITAR2
|-----------------------------------------------------------------------------|
|------------------------------------------------------------------5-6-5------|
|--------------------------------------------------5-4-5-7-5-4-5-7-------7----|
|-----------------------------------------------------------------------------|
|----------------------555555-------------------------------------------------|
|----555555333333111111---------555555333333111111----------------------------|
     ........................   ..................


PART 6 :   1:36
   GUITAR1 (X 2)
|--------------------------------|
|--------------------------------|
|--------------------------------|
|--------------------------------|
|----------------------555555----|
|----555555333333111111----------|
     ........................

   GUITAR2
|------------------------------------------------------------------------------|
|------------------------------------------------------------8----8-10-8-------|
|----------------------------------------------9-7-9-10-9-10---10--------10----|
|----10-10-10-9-7--10-10-10-9-7--10-10-10-9-7----------------------------------|
|------------------------------------------------------------------------------|
|------------------------------------------------------------------------------|

|------------------------------------------------------------------------|
|------------------------------------------------------8----8-10-8-------|
|----9-9-9-7-----9-9-9-7-----9-9-9-7-----9-7-9-10-9-10---10--------10----|
|------------10----------10----------10----------------------------------|
|------------------------------------------------------------------------|
|------------------------------------------------------------------------|



PART 7 :   1:48
   GUITAR1
|------------------------------------------------------------------|
|------------------------------------10-9---------9-8--------------|
|-------------------------------------9-8---------8-7--------------|
|----2-------2-2-----------------7ah--7-6---------6-5---------2----|
|----2-------2-2-----5-5-5-4----------------------------------2----|
|----0-0-0-0-0-0-0-0---------6-6----------5-4-3-1-----4-3-2-1-0----|
       . . .     . . . . . . . .          . . . .     . . . . .

   GUITAR2
|------------------------------------------------------------------|
|------------------------------------------------------------------|
|------------------------------------------------------------------|
|--------------------------------7ah--------------------------2----|
|--------------------5-5-5-4----------------------------------2----|
|----------------------------6-6----------5-4-3-1-----4-3-2-1-0----|
                     . . . . . .          . . . .     . . . . .


PART 8 : (X 2)   1:55
   BOTH GUITARS
|--------------------------------------------------------|
|------------------------------------10-9---------9-8----|
|-------------------------------------9-8---------8-7----|
|----2-------2-2-----------------7ah--7-6---------6-5----|
|----2-------2-2-----5-5-5-4-----------------------------|
|----0-0-0-0-0-0-0-0---------6-6----------5-4-3-1--------|
       . . .     . . . . . . . .          . . . .


PART 9 :   2:06
   BOTH GUITARS (X 2)					   BOTH GUITARS
|-----------------------------------------------|	|--------------------------------------------------------|
|-----------------------------------------------|	|--------------------------------------------------------|
|-----------------------------------------------|	|--------------------------------------------------------|
|------------------------------5-5-----6-6-5-5--|	|---------------------------------------5-5--------------|
|-----777888---777888---777888-----7-7----------|	|-----777888777---777888777---777888777-----7-7-8-8-7-7--|
|--555------666------888------------------------|	|--555---------666---------888---------------------------|
   ........................... . . . . . . . .             .................................... . . . . . . . .


   BOTH GUITARS							   BOTH GUITARS (X 3)
|--------------------------------------------------------|	|-----------------------|
|--------------------------------------------------------|	|-----------------------|
|--------------------------------------------------------|	|-----------------------|
|---------------------------------------5-5-----6-6-5-5--|	|----5-8-5-5-6-6-5-5----|
|-----777888777---777888777---777888777-----7-7----------|	|-----------------------|
|--555---------666---------888---------------------------|	|-----------------------|
   .................................... . . . . . . . .		     . . . . . . . .


PART 10 :   2:34
   GUITAR1 (X 2)
|------------------------------------------------|
|------------------------------------------------|
|------------------------------------------------|
|------------------------------------------------|
|----------------------------------5555555555----|
|----555555555533333333331111111111--------------|
      .... .... .... .... .... .... .... ....

   GUITAR2
|-------------------12-13-12--------------15-13-12-13---15-13-12-13----|
|-------------13-12----------15--13-12---------------------------------|
|----12--------------------------------14------------------------------|
|-------15-14----------------------------------------------------------|
|----------------------------------------------------------------------|
|----------------------------------------------------------------------|

|-------------15-13-----------------------15----------12-------------|
|-------------------13-13-15-15---12h13h15---13-12-------15-12-13----|
|----12--------------------------------------------12----------------|
|-------15-14--------------------------------------------------------|
|--------------------------------------------------------------------|
|--------------------------------------------------------------------|



PART 11 : (X 2)   2:46
   BOTH GUITARS
|------------------------------------------------|
|------------------------------------------------|
|------------------------------------------------|
|------------------------------------------------|
|----------------------------------5555555555----|
|----555555555533333333331111111111--------------|
      .... .... .... .... .... .... .... ....


PART 12 :   2:57
   GUITAR1 (X 2)
|------------------------------------------------|
|------------------------------------------------|
|----------------------------------7----7--------|
|----7----7----5----5----3----3----7----7--------|
|----7----7----5----5----3----3----5555555555----|
|----555555555533333333331111111111--------------|
      .... .... .... .... .... .... .... ....

   GUITAR2 (Solo que je n'arrive pas a reproduire...)
|-------------------------------------------------|
|-------------------------------------------------|
|-------------------------------------------------|
|-------------------------------------------------|
|-------------------------------------------------|
|-------------------------------------------------|



PART 9   3:08
PART 8 (X 2)   3:36
PART 9   3:47


PART 13 (X 2)   4:15
   BOTH GUITARS
|--------------------------------|
|--------------------------------|
|--------------------------------|
|--------------------------------|
|----------------------555555----|
|----555555333333111111----------|
     ........................


PART 4 (X 3)   4:35
Noise   4:59
J'espère que vous appréciez ces tablatures malgré les quelques erreurs qui s'y glissent. Pour toutes corrections au autre, me contacter : cannibal.invasion@caramail.com Bien évidemment, les mesures ne sont pas exactes, il faut se référer au morceau pour avoir les bons temps.
-mail
Mise à jour: 15 Avril 2001