Misanthrope
FR
Français


Tablatures
Hater of Mankind
.

Trancribed by Aymeric Fontaine.
PART 1a :   0:04	PART 1b :   0:05					PART 1c :   0:08
|----------------|	|-----------------------------------------------|	|------------------------------------|
|----------------|	|-----------------------------------------------|	|-----------------------------5-6----|
|----------------|	|--------------------------------------5-3-4----|	|-----------------------------4-5----|
|---------3-2----|	|----2--7-7--7-6-6--6-6-6--6-6-3--3-2--5-3-4----|	|----2--7-7--6-6-6--3-3--3-2--2-3----|
|---------3-2----|	|----2--7-7--7-6-6--6-6-6--6-6-3--3-2--3-1-2----|	|----2--7-7--6-6-6--3-3--3-2---------|
|----15\--1-0----|	|----0--5-5--5-4-4--4-4-4--4-4-1--1-0-----------|	|----0--5-5--4-4-4--1-1--1-0---------|
			     .  . .  . . .  . . .  . . .  .				. .  . . .  . .  .


PART 1b   0:11		PART 1d :   0:15

			|----------------------------------------|
			|-----------------------------5-3-5-5----|
			|-----------------------------4-2-4-4----|
			|----2--7-7--6-6-6--3-3--3-2--2-0-2-2----|
			|----2--7-7--6-6-6--3-3--3-2-------------|
			|----0--5-5--4-4-4--1-1--1-0-------------|
				. .  . . .  . .  .


PART 2a :   0:19					PART 2a :   0:19
|--------------------------------------------|		|------------------------------------------------------------|
|--------------------------------------------|		|------------------------------------------------------------|
|-------------------------------------9-6-7--|		|------------------------------------------------11-12-9-14--|
|-------------------------------------9-6-7--|		|------------------------------------------------11-12-9-14--|
|-------------------------------------7-4-5--|		|-------------------------------------------------9-10-7-12--|
|--0-11-1-1-1-1111-11-00-00...(X 22)---------|		|--00-00...(X 12)-14\-12\-10\-9\--00-00...(X 12)-------------|
     . .. . . . .... .. .. ..


PART :   0:40
PART 3a : (X 3)   0:40				PART 3b :   0:54
|----------------------------------------|	|-----------------------|
|----------------------------------------|	|-----------------------|
|---------------------------------4-3----|	|-----------------------|
|-----------------------------2-3--------|	|----2-2-2-2-2----------|
|-------2-1-----2-3-----2-1-0------------|	|----2-2-2-2-2---12\----|
|---0-0-----0-0-----0-0------------------|	|----0-0-0-0-0----------|
    ...........................			         . .


PART 4 :   0:57
PART 4a : (X 2)   0:57				PART 4b :    1:05			PART 4a : (X 2)   1:15
|-------------------------------------|		|-------------------------|
|-------------------------------------|		|-------------------------|
|----4-4-6-4--------------------------|		|----9-6-7------9-7-10----|
|----4-4-6-4-7-6---7-7-9-7-4-4-2-2----|		|----9-6-7-9-9--9-7-10----|
|----2-2-4-2-7-6---7-7-9-7-4-4-2-2----|		|----7-4-5-9-9--7-5--8----|
|------------5-4---5-5-7-5-2-2-0-0----|		|----------7-7------------|
                           . . .


PART 5 : (X 2)   1:31
|--------------------------------------------------|
|--------------------------------------------------|
|--------------------------------------------------|
|-------------------9------------------10(11)-7----|
|----7-7-9p8p7---------5-5-7p6p5-------------------|
|--------------10-9--------------8-7-5-------------|



PART 6 :   1:31
|------------------------------------------------------------------|
|------------------------------------------------------------------|
|------------------------------------------------------------------|
|----------------2--------------4--------------2--------------2----|
|----------------2--------------4--------------2--------------2----|
|----3-2-1-2-0-1-0--3-2-1-2-3-1-2--3-2-1-2-0-1-0--3-2-1-2-3-2-0----|



PART 7a : (X 2)   1:37			PART 7b :   1:51
|-------------------------|		|-------------------------------------------|
|-------------------------|		|-------------------------------------------|
|------4-7------4-7-10----|		|----------------------4-7-9-6--4-7-9-11----|
|----2-4-7-7--2-4-7-10----|		|--------2--------2-4--4-7-9-6--4-7-9-11----|
|----2-2-5-7--2-2-5--8----|		|----2-5---4--2-5------2-5-7-4--2-5-7--9----|
|----0-----5--0-----------|		|-------------------------------------------|



PART 4a (X 2)   2:04
PART 4b   2:13
PART 6   2:23


PART 8a : (X 2)   2:31							PART 8b : (X 2)   2:42
|------------------------------------------------------------------|	|-------------------------------------------------|
|----------------------------------5-4-3---------------------------|	|-------------------------------------------------|
|-------4-3-2-----------4-4--4-3-2-------4-3-2---------------------|	|-------4-3-2-------------------4-3-2-------------|
|-4-3-2-------4-3-2-----4-4--------------------4-3-3h4p3h4p3h4p3h4-|	|-4-3-2-------4-3-2-------4-3-2-------4-3-2-------|
|-------------------4-3-2-2----------------------------------------|	|-------------------4-3-2-------------------3-4-5-|
|------------------------------------------------------------------|	|-------------------------------------------------|
  . . . . . . . . . . .      . . . . . . . . . . .			  . . . . . . . . . . . . . . . . . . . . . . . .


PART 8c :   2:51		PART 9a : (X 3)   2:54		PART 9b :   3:06
|-------------------|		|-----------------------|	|-----------------------|
|-------------------|		|-----------------------|	|-----------------------|
|-------88-8-8-8----|		|-----------------------|	|-----------------------|
|-------88-8-8-8----|		|-----------------------|	|-----------------------|
|----6--66-6-6-6----|		|--------------2-1-1----|	|--------------2-1-0----|
|-------------------|		|----4-2-1-1-4----------|	|----4-2-1-1-4----------|



PART 10 : (X 2)
PART 10a : (X 2)   3:21					PART 10b : (X 2)   3:25
|-----------16-----------16-----------16-16-----|	|-----------18-----------18-----------18-18-----|
|--15-15-15-----15-15-15-----15-15-15-------15--|	|--17-17-17-----17-17-17-----17-17-17-------17--|
|-----------------------------------------------|	|-----------------------------------------------|
|-----------------------------------------------|	|-----------------------------------------------|
|-----------------------------------------------|	|-----------------------------------------------|
|-----------------------------------------------|	|-----------------------------------------------|


PART 3   3:41
PART 4   3:58
PART 6   4:16


PART 11a :   4:26
|------------------------------------------------------------------------------------------------------------------------------|
|------------------------------------------------------------------------------------------------------------------------------|
|--4-------------------------------3-------------------------------------------------------------------------------------------|
|--4---------------4---------------3---------------3-------------------------------2---------------6-----6--6-5----------------|
|--2-2-2-2-5-2-2-2---2-2-2-5-2-2-2-1-1-1-1-4-1-1-1---1-1-1-4-1-1-1-0-0-0-0-3-0-0-0---0-0-0-3-0-0-0-6-----6--6-5----------------|
|--------------------------------------------------------------------------------------------------4-4-4-4--4-3-3-3-3-3-3-3-3--|
     . . .   . . .   . . .   . . .   . . .   . . .   . . .   . . . .   . .   . . .   . . .   . . .   . .        . . . . . . .


PART 11b : (X 3)   4:38
|-----------------------------------------------------------------------------------------------------------------------------|
|-----------------------------------------------------------------------------------------------------------------------------|
|--------------------------4-4--4-------------------------3-3--3-------------------------2-2--2-------------------------------|
|------------------4-------4-4--4-----------------3-------3-3--3-----------------2-------2-2--2-6-------6--6-5----------------|
|--2-2-2-2-5-2-2-2---2-2-2-2-2--2-1-1-1-1-4-1-1-1---1-1-1-1-1--1-0-0-0-0-3-0-0-0---0-0-0-0-0--0-6-------6--6-5----------------|
|-----------------------------------------------------------------------------------------------4-4-4-4-4--4-3-3-3-3-3-3-3-3--|
     . . .   . . .   . . .          . . .   . . .   . . .          . . .   . . .   . . .          . . .        . . . . . . .


PART 11c :   5:01
|-------------------------------------------------------------------------------------------------------------------|
|-------------------------------------------------------------------------------------------------------------------|
|----------------------------4-4--4-------------------------3-3--3-------------------------2-2--2-------------------|
|--------------------4-------4-4--4-----------------3-------3-3--3-----------------2-------2-2--2-6-------6--6-5----|
|----2-2-2-2-5-2-2-2---2-2-2-2-2--2-1-1-1-1-4-1-1-1---1-1-1-1-1--1-0-0-0-0-3-0-0-0---0-0-0-0-0--0-6-------6--6-5----|
|-------------------------------------------------------------------------------------------------4-4-4-4-4--4-3----|
       . . .   . . .   . . .          . . .   . . .   . . .          . . .   . . .   . . .          . . .


PART 11d : (X 2)   5:13
|---------------------------------------------------------------------------------------------|
|---------------------------------------------------------------------------------------------|
|---------------------------------------------------------------------------------------------|
|-----------------------------------------------------------------------------------6--6-5----|
|-------------------9-------------------------8-------------------------7-----------6--6-5----|
|----7-7777-10-7777---7777-15\--6-6666-9-6666---6666-15\--5-5555-8-5555---5555-15\--4--4-3----|
       ....    ....   ....        ....   ....   ....        ....   ....   ....


PART 12 :   5:35
|-------------------------------------------------------------|
|-------------------------------------------------------------|
|----------------------------------4-3------------------------|
|------------------------------2-3---------3-2-----------2----|
|--------2-1-----2-3-----2-1-0---------1-2-----1-2-1-----2----|
|----0-0-----0-0-----0-0-----------------------------2-1-0----|
     .........................
J espère que vous apprécierez ces tablatures malgré les quelques erreurs qui s'y glissent. Pour toutes corrections, encouragements, insultes ou autre, me contacter : cannibal.invasion@caramail.com

Bien évidemment, les mesures ne sont pas exactes, il faut se référer au morceau pour avoir les bons temps.

-mail
Last updated: 24 July 2001