Misanthrope
FR
Français


Tablatures
Exiled Existence
.

Trancribed by Aymeric Fontaine.
INTRO :   0:00
   GUITAR1										   GUITAR2
|----------------------------12---------10--------------------------------------------|	|------------------------|
|-------10---10-----------13---------12----13-12----------------------------10--------|	|------------------------|
|----11---------9-12---10---------10------------------9-10-12-10-9----10-12----12-10--|	|--9-------10------------|
|--9-----------------------------------------------10--------------12-----------------|	|--9---7---10---10---12--|
|-------------------------------------------------------------------------------------|	|--7---7----8---10---12--|
|-------------------------------------------------------------------------------------|	|------5---------8---10--|



PART 1a :   0:17
   GUITAR1
|----------------------------------|------------12-10-------------------------------|
|----------------------------------|---13-12-10-------13-13-12-10---------13-12-10--|
|------------9-7-9-----------------|-9----------------------------12-11-9-----------|
|-----9-7-9---------9-10-12-10-9-7-|------------------------------------------------|
|--7-------------------------------|------------------------------------------------|
|----------------------------------|---------------------(X 2)----------------------|

										   GUITAR2
|-----------------------------------------------------------------------|	|------------------------|
|-----------------------------------------------------------------------|	|------------------------|
|--------------------------------------------------------------9--------|	|--9-------10------------|
|-----9-10-12--10-9----9-10-12-10-9-----9-10-12-10-9-----10-12---12-10--|	|--9---7---10---10---12--|
|--8----------------8----------------10---------------12----------------|	|--7---7----8---10---12--|
|-----------------------------------------------------------------------|	|------5---------8---10--|



PART 1b :   0:35
   GUITAR1
|---------------------------------------------|------------12-10-------------------------------|
|------------12-10----------------------------|---13-12-10-------13-13-12-10---------13-12-10--|
|----12-11-9-------12-12-11-9---------12-11-9-|-9----------------------------12-11-9-----------|
|--9--------------------------12-10-9---------|------------------------------------------------|
|---------------------------------------------|------------------------------------------------|
|------------------(X 2)----------------------|--------------------(X 2)-----------------------|

											   GUITAR2
|-------------13-12-------------------------------|-----------------------------------|	|-----------------------|
|----15-13-12-------15-15-13-12----------15-13-12-|--------------------------10-------|	|-----------------------|
|-10----------------------------14-12-10----------|----9-10-12-10-9----10-12----12-10-|	|-----------------------|
|-------------------------------------------------|-10--------------12----------------|	|-----------------------|
|-------------------------------------------------|-----------------------------------|	|--7--------8-----------|
|--------------------(X 2)------------------------|-----------------------------------|	|------5--------8---10--|
						    .................................	   ...................


PART 2 :   0:52
   GUITAR1
|--------------------------------------------------0-12-0-10-0-10-0-12-0-7-0-7-0-14h15p14-12------------|
|--12--10----10-12-------------10-11-12--13-10-----------------------------------------------15--12-10--|
|---------12--------9-10-11-12-----------------11-------------------------------------------------------|
|-------------------------------------------------------------------------------------------------------|
|-------------------------------------------------------------------------------------------------------|
|-------------------------------------------------------------------------------------------------------|
                    .  .  .  .  .  .

   GUITAR2
|-------------------------------------------------------------------------------|
|-------------------------------------------------------------------------------|
|-------------------------------------------------------------------------------|
|----9-7------9-7--------------------------9-7------9-7-------12-10-9---10-9-7--|
|--7-----10-7-----10---10-9-7----12-10-9-7-----10-7-----10-10---------8---------|
|--------------------8--------10------------------------------------------------|
   ...........................................................................


PART 3a : (X 2)   1:03
   GUITAR1	  A................ B.......................... C.......................................................
|----------------|-----------------|---------------------------|--------------------------------------------------------|
|----------------|-----------------|---------------------------|--------------------------------------------------------|
|--9------9------|-12------11----7-|-9-------------------------|-12------11----7----5------5------5------------7-9-9-7--|
|--9------9------|-12------11----7-|-9----------------9-7------|-12------11----7----5------5------5----5-7-7-7-7-9-9-7--|
|--7-7777-7-7777-|-10-1010--9-99-5-|-7-77-10-10101010-----9----|-10-1010--9-99-5-55-3-3333-3-3333-3-33-5-7-7-7-5-7-7-5--|
|----------------|-----------------|------------------------10-|---------------------------------------3-5-5-5----------|
     ....   ....       . .    ..       ..     . . .		     . .    ..   ..   ....   ....   ..

   GUITAR2
|----------------|-----------------|---------------------|--------------------------------------------------------|
|----------------|-----------------|---------------------|--------------------------------------------------------|
|--9------9------|-12------11----7-|-9-----------7-6-----|-12------11----7----5------5------5------------7-9-9-7--|
|--9------9------|-12------11----7-|-9----9-9999-----7---|-12------11----7----5------5------5----5-7-7-7-7-9-9-7--|
|--7-7777-7-7777-|-10-1010--9-99-5-|-7-77--------------9-|-10-1010--9-99-5-55-3-3333-3-3333-3-33-5-7-7-7-5-7-7-5--|
|----------------|-----------------|---------------------|---------------------------------------3-5-5-5----------|
     ....   ....       . .    ..       ..   ...		       . .    ..   ..   ....   ....   ..


PART 4 : (X 2)   1:23
   BOTH GUITARS
|-------------------------------------------------------------------------------|
|-------------------------------------------------------------------------------|
|-------------------------------------------------------------------------------|
|----9-7------9-7--------------------------9-7------9-7-------12-10-9---10-9-7--|
|--7-----10-7-----10---10-9-7----12-10-9-7-----10-7-----10-10---------8---------|
|--------------------8--------10------------------------------------------------|
   ...........................................................................


PART 3a (X 2)   1:44
PART 4   2:04


END :   2:14
   BOTH GUITARS
|------------------------------|
|------------------------------|
|------------------------------|
|-----12-10-9-10-9----9--------|
|--10--------------12---12-10--|
|------------------------------|
   ..........


PART 5 : (X 2)   2:16
   BOTH GUITARS
|----------------------------------------------------|--------------(X 2)-------------|---------------------------------|
|----------------------------------------------------|--------------------------------|---------------------------------|
|--------------------------7--7--7-7-----------------|--------------------------------|---------------------------------|
|--7--7--7-7-10--10--10-10-----------10-9-7-9-7----7-|----------------------------5---|------------------------------5--|
|-----------------------------------------------10---|-0-000-0-000-0-00-7-5-3-5-7---0-|-0-10120-0-000-0-00-7-5-3-5-7----|
|----------------------------------------------------|--------------------------------|---------------------------------|
                                                       . ... . ... . .. . . . . .   .	.  . .. . ... . .. . . . . .

|------------(X 2)--------------|--------------------------------------------------------------------------|
|-------------------------------|----------------------------------------------------7---------------------|
|-------------------------6-----|------------------------10-------------------8----8---10-8----------------|
|-----------------------5---5---|----------------------9----9-------7-10-7-10---10----------10-9-7-9-7-----|
|--4-4-444-4-444-4-4444-------4-|-7-7-777-7-777-7-7777--------7-6-9------------------------------------10--|
|-------------------------------|--------------------------------------------------------------------------|
   . . ... . ... . .... .   . .   . . ... . ... . .... .    . .


END2 :   3:08
   BOTH GUITARS
|-----------------------------------------------------|
|-----------------------------------------------------|
|-----------------------------------------------------|
|--------------------------7--7--7-7------------------|
|--7--7--7-7-10--10--10-10-----------10-9-7-9-7----7--|
|-----------------------------------------------10----|



PART 3a (X 2)   3:11
PART 2   3:31


PART 3b :   3:42
   BOTH GUITARS			     A.................... B.................... C....................
|-----------------------------------|---------------------|---------------------|---------------------|
|-----------------------------------|---------------------|---------------------|---------------------|
|--9------9------12------11----7----|---------------------|---------------------|---------7-9-9-7-9\--|
|--9------9------12------11----7----|---------------------|----12-10-9---10-9-7-|-5-7-7-7-7-9-9-7-9\--|
|--7-7777-7-7777-10-1010--9-99-5-55-|---10-9-7----12-10-9-|-10---------8--------|-5-7-7-7-5-7-7-5-7\--|
|-----------------------------------|-8--------10---------|---------------------|-3-5-5-5-------------|
     ....   ....     . .    ..   ..   ...................   ...................

For Questions, comments or corrections : please contact Aymeric Fontaine at darktabs@fr.st Visit my personnal website www.darktabs.fr.st for more guitar transcriptions.
-mail
Last updated: 13 January 2003