Misanthrope
GB
English


Tablatures
L'écume des Chouans
.

Transcrit par Aymeric Fontaine.

Vous avez peut-être vu et essayé de jouer l'ancienne version de ce morceau que j'avez faite : celle ci était truphée d'erreurs. En effet, le morceau doit être joué avec la guitare accordée en ré...

INTRO :   0:00
   GUITAR1
|-------------------------------------|
|-------------------------------------|
|-------------------------------------|
|-------------------------------------|
|----5-5-5-7---------5-5-5-7----------|
|----5-5-5-7-0-000---5-5-5-7-0-000----|
	     . ...	     . ...


RIFF1 : (X 2)   0:03
   GUITAR1
|--------------------------------------------------------------------|
|--------------------------------------------------------------------|
|--------------------------------------------------------------------|
|-------------------------1------------------------------------------|
|----5-5-5-7--------------1---------5-5-5-7--------------------------|
|----5-5-5-7-0-000--3-2-3-0--0-000--5-5-5-7-0-000-5-5-3-3-2-2-3-2----|
	     . ...  . . .    . ...          . ... . . . . . . . .
   GUITAR2
|--------------------------------------------------------------|
|--------------------------------------------------------------|
|--------------------------------------------------------------|
|----10-9-7----------------9---10-9-7-----10-10-9-9-7-7-9-7----|
|-----------7---12-10-12-9------------7------------------------|
|--------------------------------------------------------------|
					   .  . . . . . . .


RIFF 2 : (X 2) 	 0:17
   GUITAR1
|--------------------------------------------------------------|
|--------------------------------------------------------------|
|--------------------------------------------------------------|
|----10-9-7----------------9---10-9-7-----10-10-9-9-7-7-9-7----|
|-----------7---12-10-12-9------------7------------------------|
|--------------------------------------------------------------|
					   .  . . . . . . .
   GUITAR2
|------------------------7----------7-----------------------|
|----------8-10-7-----------------7---10---8-7-------8-7----|
|----9-7-9---------9-7-9----9-7-9--------9-----9-7-9--------|
|-----------------------------------------------------------|
|-----------------------------------------------------------|
|-----------------------------------------------------------|

   GUITAR3
|--------------------------------------------------------------------|
|--------------------------------------------------------------------|
|--------------------------------------------------------------------|
|-------------------------1------------------------------------------|
|----5-5-5-7--------------1---------5-5-5-7--------------------------|
|----5-5-5-7-0-000--3-2-3-0--0-000--5-5-5-7-0-000-5-5-3-3-2-2-3-2----|
	     . ...  . . .    . ...          . ... . . . . . . . .


RIFF 3 : (X 2)   0:31
   BOTH GUITARS
|-----------------------------------------------------------------|
|-----------------------------------------------------------------|
|-----------------------------------------------------------------|
|----------------------------5------------------------------------|
|----5-5-5-7---------5-5-5-7-5--5-5-5-7---------------------------|
|----5-5-5-7-0-000---5-5-5-7----5-5-5-7-0-000--5-5-3-3-2-2-3-2----|
	     . ...	       	        . ...  . . . . . . . .


RIFF 4 : (X 2)   0:44
   GUITAR1
|--------------------------------------------------------------------|
|--------------------------------------------------------------------|
|--------------------------------------------------------------------|
|-------------------------1------------------------------------------|
|----5-5-5-7--------------1---------5-5-5-7--------------------------|
|----5-5-5-7-0-000--3-2-3-0--0-000--5-5-5-7-0-000-5-5-3-3-2-2-3-2----|
	     . ...  . . .    . ...          . ... . . . . . . . .

   GUITAR2
|------------------------7----------7-----------------------|
|----------8-10-7-----------------7---10---8-7-------8-7----|
|----9-7-9---------9-7-9----9-7-9--------9-----9-7-9--------|
|-----------------------------------------------------------|
|-----------------------------------------------------------|
|-----------------------------------------------------------|



RIFF 5 :   0:58
   BOTH GUITARS
|-----------------------------------------------|
|-----------------------------------------------|
|-----------------------------------------------|
|-----------------------------------------------|
|----5-7-5--------------------1----7-------7----|
|----------8-7-5--7-8-7-5-5-3-0------0-0-7------|



RIFF 6 : (X 6)   1:09 (Pour ce passage, je ne suis pas sûr du tout)
   BOTH GUITARS
|------------------------------|
|------------------------------|
|------------------------------|
|-------------------2----------|
|----2-5-4-3-2--3-5---2-3-4----|
|----0-3-2-1-0-----------------|
     . . . . .  . . . . . .


INTRO   1:30
RIFF 1 (X 2)   1:33
RIFF 2 (X 2)   1:47
RIFF 3 (X 2)   2:00
RIFF 2 (X 2)   2:14



RIFF 7 : (X 2)   2:28
   BOTH GUITARS
|-------------------------------------------------------------|
|-------------------------------------------------------------|
|-------------------------------------------------------------|
|----5-5-4---------------------5-5-4---9---11-12-9---12-11----|
|----5-5-4---9-10-9-7----------5-5-4-----9---------9----------|
|----3-3-2------------9-10-7---3-3-2--------------------------|



RIFF 7.2 :
    BOTH GUITARS   2:48
|-----------------------------------------------------------------------|
|-----------------------------------------------------------------------|
|----11-9----9---------------------------------11-9----9----------------|
|---------12---12-11-12-11-9---11-12-9---12-11------12---12-11-12-11----|
|----------------------------9---------9--------------------------------|
|-----------------------------------------------------------------------|



RIFF 7 (X 2)   2:56
RIFF 7.2   3:16
RIFF 5   3:23
RIFF 6 (X 6)   3:34
RIFF 7 (X 2)   3:55
RIFF 7.2   4:15
RIFF 7 (X 2)   4:23
RIFF 7.2   4:43



RIFF 8 :
   GUITAR1 (First time) + Guitar2 (Until end)   4:50
|-------------------------------------------------|
|-------------------------------------------------|
|------------------------11-9----9----------------|
|----9---11-12-9---12-11------12---12-11-12-11----|
|------9---------9--------------------------------|
|-------------------------------------------------|

   GUITAR1 (Second time) (Until end)   5:21
|--------------------------------------|
|--------------------------------------|
|----4-------4---11-9-7-9-7-6-7-6------|
|----4-------4---11-9-7-9-7-6-7-6------|
|----2-------2----9-7-5-7-5-4-5-4------|
|--------2-2---------------------------|
         . .

J'espère que vous appréciez ces tablatures malgré les quelques erreurs qui s'y glissent. Pour toutes corrections au autre, me contacter : cannibal.invasion@caramail.com Bien évidemment, les mesures ne sont pas exactes, il faut se référer au morceau pour avoir les bons temps.
-mail
Mise à jour: 24 Juillet 2001