Misanthrope
GB
English


Tablatures
Sous l'éclat blanc du nouveau millénaire
.

Transcrit par Aymeric Fontaine.
INTRO :   0:04
   BOTH GUITARS
|---------------------------------------|
|---------------------------------------|
|---------------------------------------|
|----7---7---7-------------7---7---7----|
|----7---7---7-------------7---7---7----|
|----5-555-555-------------5---5---5----|
       ..  ..


PART 1 : (X 2)   0:11
   BOTH GUITARS
|-----------------------------------------------------|
|-----------------------------------------------------|
|----7---7---9---10---9---109-7---7---9---------------|
|----7---7---9---10---9---109-7---7---9--7---7---7----|
|----555555557777-88887777-87-555555557--7---7---7----|
|----------------------------------------5-555-555----|
      ... ... ...  ... ...     ... ...     ..  ..


PART 2 : (X 2) 	 0:22
   GUITAR1
|---------------------------------------------------------|
|---------------------------------------------------------|
|---------------------------------------------------------|
|---------------------------------------------------------|
|-----------------3333--------------------3333------------|
|----5666655553333----66665555666655553333----66665555----|
     .................................................

   GUITAR2
|--------------------------------3-5-3---------------------------------------3----|
|--------------------------3-6-5-------6-5---------------------6-3-5-3-4-5-6------|
|---------------------------------------------------------------------------------|
|---------------------------------------------------------------------------------|
|-----------------3333--------------------------------3333------------------------|
|----5666655553333----6666----------------666655553333----6666--------------------|
     .....................                ....................


PART 1 (X 2)   0:33


PART 3   0:44
   GUITAR1
|---------------------------------------------------------|
|---------------------------------------------------------|
|---------------------------------------------------------|
|---------------------------------------------------------|
|-----------------3333--------------------3333------------|
|----5666655553333----66665555666655553333----66665555----|
     .................................................

   GUITAR2
|----------------------------5-3-6-8-6-5-3---------------------3---------3-5-6----|
|--------------------------3-------------------------------------5-6-5-6----------|
|---------------------------------------------------------------------------------|
|---------------------------------------------------------------------------------|
|-----------------3333--------------------------------3333------------------------|
|----5666655553333----6666----------------666655553333----6666--------------------|
     .....................                ....................


PART 4 :   0:55
   GUITAR1
|----------------------10-8---------------------------10-8------------|
|----------------10-11------11-10------------10-11-10------11-10-8----|
|---------------------------------------------------------------------|
|---------------------------------------------------------------------|
|---------------------------------------------------------------------|
|---------------------------------------------------------------------|


   GUITAR 2
|---------------------------------------------------------------------|
|---------------------------------------------------------------------|
|-------------------------7-5----------------------------7-5----------|
|---------------------7-8-----8-7------------------7-8-7-----8-7-5----|
|----7-7-----7-7------------------7-7-----7-7-------------------------|
|----5-5-5-5-5-5-5-5--------------5-5-5-5-5-5-5-5---------------------|
         . .     . .


PART 5 :   1:02
   GUITAR1
|----------------------------------------------------|
|----------------------------------------------------|
|----------------------------------------------------|
|----5-5--5-5----------------------------5-5--5-5----|
|----5-5--5-5----------------------------5-5--5-5----|
|----3-3--3-3----------------------------3-3--3-3----|


   GUITAR2
|----------------------------------------------------------------------------------|
|----------------------------------------------------------------------------------|
|-------------10h12p10----------------------------10h12p10-------------------------|
|----------------------12----11-10-------------------------12----11-10-------------|
|-------------------------13-------13-10-10-------------------13-------13-10-12----|
|----------------------------------------------------------------------------------|



PART 6 : (X 2)   1:09
   GUITAR1					   GUITAR2
|-------------------------------------|		|-----------------------------------------|
|-------------------------------------|		|-----------------------------------------|
|----------------8-7-------------7----|		|----------------12-10-9----------9-10----|
|----77----77--------10-8-7-8-10------|		|----77----77------------12-10-12---------|
|----77----77-------------------------|		|----77----77-----------------------------|
|----55-55-55-55----------------------|		|----55-55-55-55--------------------------|
        ..    ..					..    ..


PART 7 : (X 2)   1:16
   BOTH GUITARS
|----------------------------------------|
|----------------------------------------|
|----------------10-8----8-11-10-8-------|
|-------55----55------10-----------10----|
|-------55----55-------------------------|
|----33-33-33-33-------------------------|
     ..    ..


PART 6 (X 2)   1:23
PART 7 (X 2)   1:30
PART 1 (X 2)   1:37
PART 2    1:48
PART 1 (X 2)   1:59
PART 3   2:10
PART 6 (X 2)   2:21
PART 7 (X 2)   2:28
PART 6 (X 2)   2:35
PART 7 (X 2)   2:42



PART 8   2:49
   BOTH GUITARS
|----------------------------------|
|----------------------------------|
|----------------------------------|
|----7--7--2-------3---------------|
|----7--7--2-------3---------------|
|----5--5--0--0-0--1-1-1-1--1-1----|
              . .  . . . .  . .


PART 9 : (X 6)   2:55
   GUITAR1
|-------------------------------------------------------------|
|-------------------------------------------------------------|
|-------------------------------------------------------------|
|-------------------------------7-2-----3--------7-2-----3----|
|-------------------------------7-2-0---3--------7-2-0---3----|
|----7770007778887770007770008885-0---0-1--------5-0---0-1----|
     ...........................    . . .            . . .

   GUITAR2
|-------------------------------------------------------------------------|
|-------------------------------------------------------------------------|
|-------------------------------------------------------------------------|
|-------------------------------7-2-----3---------------------------------|
|-------------------------------7-2-0---3---------------------------------|
|-------------------------------5-0---0-111111111111111111111111111111----|
				    . .  .............................


PART 10 :   3:05
   BOTH GUITARS
|-----------------------------------------------------------------------------|
|-----------------------------------------------------------------------------|
|-----------------------------------------------------------------------------|
|-----------------------------------------------------------------------------|
|-----------------------------------------------------------------------------|
|----777000777888888777000777000888888555000555000111111555000555000111111----|
     .....................................................................


PART 11 :   3:16
    GUITAR1
|-----------------------------------------------------------------------------------------|
|---------------------------------------------------------666----------------666----------|
|---------------------------------------------------555888---888888----555888---777777----|
|----555888888555888555555-555888888555888555555-777----------------777-------------------|
|-----------------------------------------------------------------------------------------|
|-----------------------------------------------------------------------------------------|
     ..................... ..................... .................. ..................

    GUITAR2
|-----------------------------------------------------------------------------------------|
|-----------------------------------------------------------------------------------------|
|-------777777---777----------777777---777------------------------------------------------|
|----888------888---555555-888------888---555555-------555666444444-------555666333333----|
|------------------------------------------------333666-------------333666----------------|
|-----------------------------------------------------------------------------------------|
     ..................... ..................... .................. ..................


PART 10   3:26
PART 11   3:37
PART 8   3:48
Clavier   3:54
PART 6 (X 2)   4:21
PART 7 (X 2)   4:28
PART 6 (X 2)   4:35
PART 7 (X 2)   4:42
PART 6 (X 2)   4:49
PART 7 (X 2)   4:56


PART 12 :   5:03
   BOTH GUITARS
|--------------------|
|--------------------|
|--------------------|
|----7--7--2----2----|
|----7--7--2----2----|
|----5--5--0--0-0----|
              .

J'espère que vous appréciez ces tablatures malgré les quelques erreurs qui s'y glissent. Pour toutes corrections au autre, me contacter : cannibal.invasion@caramail.com Bien évidemment, les mesures ne sont pas exactes, il faut se référer au morceau pour avoir les bons temps.
-mail
Mise à jour: 15 Avril 2001