Misanthrope
FR
Français


Tablatures
Le Roman Noir
.

Trancribed by Aymeric Fontaine.
PART A : (X 2)   0:00

|---------------------------------------------------------------------------------------------------------------------------|
|--------------------------------------------------------------------10-----------------------------------------------------|
|------------------7---7-9---10-9-7-9-7----7-------------10-9---9-10----10-9-7-9--7-7---------------------------------------|
|----7---7-10---10----------------------10---10-9-7----7------------------------------9-9-------------9----7-7-7-------7----|
|---------------------------------------------------10------------------------------------10-10-10-10---10-------10-10------|
|---------------------------------------------------------------------------------------------------------------------------|



PART B : (X 3)   0:51

|-----------------------------------------------------------|
|-----------------------------------------------------------|
|----4-------------------------------------------------4----|
|----4----4444455555--------------------55555----------4----|
|----22222----------55555000004444433333-----33333555552----|
|-----------------------------------------------------------|
      .................................................


PART C : (X 2)   1:19

|-------------------------------------------------|
|-------------------------------------------------|
|------4-6-4-6-4-6---6-4-6-4-6-4-----4------------|
|----6-------------6-------------6-6---6----------|
|------------------------------------------6-7----|
|----------------------------------------7--------|



PART B   1:32
PART C   1:39
PART B (X 2)   1:52
PART C   2:00


PART D :   2:13

|--------------------------------------------------------------------|
|--------------------------------------------------------------------|
|------------------------------------------------------------7--6----|
|----7---6---9---6---7---6---7---6---7---6---9---6---7---6-----------|
|--------------------------------------------------------------------|
|--------------------------------------------------------------------|



PART E :   2:44

|----9p4h9p4...h7p4h7p4...h10p4h10p4...h7p4h7p4...h9p4h9p4...h7p4h7p4...h9p4h9p4...h7p4h7p4...----|
|-------------------------------------------------------------------------------------------------|
|-------------------------------------------------------------------------------------------------|
|-------------------------------------------------------------------------------------------------|
|-------------------------------------------------------------------------------------------------|
|-------------------------------------------------------------------------------------------------|

|----h9p4h9p4...h7p4h7p4...h10p4h10p4...h7p4h7p4...h9p4h9p4...h7p4h7p4...h10p4h10p4...h7p4h7p4...----|
|----------------------------------------------------------------------------------------------------|
|----------------------------------------------------------------------------------------------------|
|----------------------------------------------------------------------------------------------------|
|----------------------------------------------------------------------------------------------------|
|----------------------------------------------------------------------------------------------------|



INTERLUDE   3:11
PART B   4:01


PART F : (X 4)   4:07

|------------------------------------------------|
|------------------------------------------------|
|----4-2-4------------------2-6-4-6-2-2-2-5-4----|
|----4-2-4-4555-------------2-6-4-6-2-2-2-5-4----|
|----2-0-2-----555444333222-0-4-2-4-0-0-0-3-2----|
|------------------------------------------------|
           ................


PART B   4:26
PART C (X 2)   4:34
PART B   4:47
PART F (X 3)   4:53


PART G :   5:12

|---------------------------------------------------------------------------|
|---------------------------------------------------------------------------|
|----------------10-9-------------------------------10-9------------10-9----|
|----7--10-9----------7--10-9------------7--10-9---------7--10-9------------|
|------------10---------------10---8-7-----------10--------------10---------|
|---------------------------------------------------------------------------|



PART H :   5:30

|-------------------------------------------|
|-------------------------------------------|
|----7---7-9---9-7-----------9---9----------|
|----7---7-9---9-7-------9---9---9----------|
|----5---5-7---7-5-------9---7---7-5---5----|
|------------------8-7---7-----------8------|



PART G   5:49
PART H   6:07
PART A (X 2)   6:25


PART I : (X 2)   7:17

|------------------------------------------------|
|------------------------------------------------|
|----7777744444-----44444------------------------|
|--------------55555-----55555777775555577777----|
|------------------------------------------------|
|------------------------------------------------|
     ........................................


PART J :   7:28

|-----------------------------------------------------------------------------|
|-----------------------------------------------------------------------------|
|--7777744444-----44444-------------9-9-9--10-10-10--11-11-11---12--12--12----|
|------------55555-----55555-7-5-7-7-7-7-78--8--8--89--9--9--910--10--10------|
|----------------------------7-5-7--------------------------------------------|
|----------------------------5-3-5--------------------------------------------|
   .........................


APPLAUSE   7:46
J espère que vous apprécierez ces tablatures malgré les quelques erreurs qui s'y glissent. Pour toutes corrections, encouragements, insultes ou autre, me contacter : cannibal.invasion@caramail.com

Bien évidemment, les mesures ne sont pas exactes, il faut se référer au morceau pour avoir les bons temps.

-mail
Last updated: 24 July 2001