Misanthrope
GB
English


Tablatures
Le Grand Démonologue
.

Transcrit par Anthony Scemama.
Guitare
                                                                 
D||-------------------|--------------------|--------------------|
A||-------------------|--------------------|--------------------|
F||-------------------|--------------------|--------------------|
C||-------------------|----------9----8----|--------------10----|
G||--7----------------|----------7----6----|--------------8-----|
D||--5----------------|----------7----6----|--------------8-----|


                                                                    
----------------------|--------------------|-----------------------|
----------------------|--------------------|-----------------------|
----------------------|--------------------|-----------------------|
--9-------------------|--------------12----|--11-------------------|
--7----2----5----7----|--------------10----|--9-----2----5----7----|
--7----0----3----5----|--------------10----|--9-----0----3----5----|


                                                       
-----------------||-----------------------------------|
-----------------||-----------------------------------|
-----------------||*----------------------------------|
-----------------||*----------------------------------|
--2----7----8----||---0-0-0-0-2-2-2-2-3-3-3-3-0-0-0-0-|
--0----5----6----||-----------------------------------|


                                                                      
----------------------------------|----------------------------------|
----------------------------------|----------------------------------|
----------------------------------|----------------------------------|
----------------------------------|----------------------------------|
--2-2-2-2-3-3-3-3-7-7-7-7-6-6-6-6-|--0-0-0-0-2-2-2-2-3-3-3-3-8-8-8-8-|
----------------------------------|----------------------------------|


                                                                 
-------------------------|--------------------------------------|
-------------------------|--------------------------------------|
-------------------------|--------------------------------------|
-------------------------|--------------------------------------|
--7-7-7-7-2----5----7----|--0-0-0-0-2-2-2-2-3-3-3-3-10-10-10-10-|
----------0----3----5----|--------------------------------------|


                                                                           
-------------------------|------------------||----------------------------|
-------------------------|------------------||----------------------------|
-------------------------|-----------------*||----------------------------|
-------------------------|-----------------*||----------------------------|
--9-9-9-9-2----5----7----|--2----7----8-----||----------------------------|
----------0----3----5----|--0----5----6-----||--0--0--0--0--0--0--0-0-0-0-|


                                                       
-------------------------|----------------------------|
-------------------------|----------------------------|
-------------------------|----------------------------|
--------------------5/---|----------------------------|
--------------------7/---|----------------------------|
--0--0--0--0--0--0-------|--0--0--0--0--0--0--0-0-0-0-|


                                                       
-------------------------|----------------------------|
-------------------------|----------------------------|
-------------------------|----------------------------|
-------------------------|----------------------------|
--5/-4--4--4/-8--8--8/---|----------------------------|
--3/-2--2--2/-6--6--6/---|--0--0--0--0--0--0--0-0-0-0-|


                                                       
-------------------------|----------------------------|
-------------------------|----------------------------|
-------------------------|----------------------------|
--------------------9/---|----------------------------|
--------------------7/---|----------------------------|
--0--0--0--0--0--0-------|--0--0--0--0--0--0--0-0-0-0-|


                                                       
-------------------------|----------------------------|
-------------------------|----------------------------|
-------------------------|----------------------------|
-------------------------|----------------------------|
--5/-4--4--4/-8--8--8/---|--2--2--2--2--2--2--2-2-2-2-|
--3/-2--2--2/-6--6--6/---|--0--0--0--0--0--0--0-0-0-0-|


                                                       
-------------------------|----------------------------|
-------------------------|----------------------------|
-------------------------|----------------------------|
--------------------5/---|----------------------------|
--2--2--2--2--2--2--7/---|--2--2--2--2--2--2--2-2-2-2-|
--0--0--0--0--0--0-------|--0--0--0--0--0--0--0-0-0-0-|


                                                       
-------------------------|----------------------------|
-------------------------|----------------------------|
-------------------------|----------------------------|
-------------------------|----------------------------|
--5/-4--4--4/-8--8--8/---|--2--2--2--2--2--2--2-2-2-2-|
--3/-2--2--2/-6--6--6/---|--0--0--0--0--0--0--0-0-0-0-|


                                                       
-------------------------|----------------------------|
-------------------------|----------------------------|
-------------------------|----------------------------|
--------------------9/---|----------------------------|
--2--2--2--2--2--2--7/---|--2--2--2--2--2--2--2-2-2-2-|
--0--0--0--0--0--0-------|--0--0--0--0--0--0--0-0-0-0-|


                                                              
---------------------------||--------------------------------|
---------------------------||--------------------------------|
---------------------------||*-------------------------------|
---------------------------||*--5----------------------------|
--5/-4--4--4/-8--8--8--7-7-||---7----7-7-7-7-7-7-7-7-7-7-7-7-|
--3/-2--2--2/-6--6--6------||--------------------------------|


                                                               
-------------------------------|------------------------------|
-------------------------------|------------------------------|
-------------------------------|------------------------------|
--4----------------------------|------------------------------|
--5----5-5-5-5-5-5-5-5-5-5-5-5-|--3---------------------------|
-------------------------------|--5----5-5-5-5-5-5-5-5-5-5-0--|


                                                           
--------------------------|-------------------------------|
--------------------------|-------------------------------|
--------------------------|-------------------------------|
--------------------------|--5----------------------------|
--------------------------|--7----7-7-7-7-7-7-7-7-7-7-7-7-|
--2--0--3--0--6--0--5--0--|-------------------------------|


                                                             
----------------------------|-------------------------------|
----------------------------|-------------------------------|
----------------------------|-------------------------------|
--4-------------------------|-------------------------------|
--5----5-5-5-5-5-5-5-5------|-------------------------------|
-----------------------7----|--5----5-5-5-5-5-5-5-5-5-5-5-5-|


                                                                      
-----------------------------------||--------------------------------|
-----------------------------------||--------------------------------|
----------------------------------*||--------------------------------|
----------------------------------*||--------------------------------|
-----------------------------------||--2----5----7----2----7----8----|
--7-7-7-7-5-5-5-5-3-3-3-3-2-2-2-2--||--0----3----5----0----5----6----|


                                           
|-----------------------------------------|
|-----------------------------------------|
|*----------------------------------------|
|*----------------------------------------|
|-----------------------------------------|
|---0--0-0-0--0--0--0--0--0-0-0--0--0--0--|


                                                                               
--------------------------------------|---------------------------------------|
--------------------------------------|---------------------------------------|
--------------------------------------|---------------------------------------|
--------------------------------------|---------------------------------------|
--7--6--5--0--5--6--7--0--3--5--------|--5/-3--3--3---------------------------|
--------------------------------0--0--|--3/-1--1--1--1-1-1--1--1--1--1--1--1--|


                                                                                
-----------------------------------------||------------------------------------|
-----------------------------------------||------------------------------------|
----------------------------------------*||*-----------------------------------|
-----------------------------9/-10--10--*||*------------------------------7~---|
--7--6--5--0--5--6--7--------7/-8---8----||-------------------------------8~---|
-----------------------0--0--7/-8---8----||---0--0-0-0--0--0--0--0--0--0-------|


                                                                               
------------------------------------------|-----------------------------------|
------------------------------------------|-----------------------------------|
------------------------------------------|-----------------------------------|
------------------------------10--10--10--|------------------------------7~---|
------------------------------8---8---8---|------------------------------8~---|
--0--0-0-0--0--0--0--0--0--0--8---8---8---|--0--0-0-0--0--0--0--0--0--0-------|


                                                                            
----------------------------------------||---------------------------------|
----------------------------------------||---------------------------------|
---------------------------------------*||---------------------------------|
---------------------------------------*||---------------------10----10----|
------------------------------3--3--3---||---------------------8-----8-----|
--0--0-0-0--0--0--0--0--0--0--1--1--1---||--0--0-0-0--0--0--0--8-----8-----|


      
----||
----||
----||
----||
----||
----||




-mail
Mise à jour: 13 Juin 2003