Misanthrope
GB
English


Tablatures
Crisis of Soul
.

Transcrit par Aymeric Fontaine.
INTRO : (X 16)   0:03
   BOTH GUITARS
|--------------------|
|--------------------|
|--------------------|
|----7---7-----------|
|----7---7-----------|
|----55555555-5-5----|
      ... ... . .


PART 1 :   0:30
   GUITAR1 (Dans premier temps...)			   GUITAR2 (Ensuite...)
|-----------------------------------------------------|	|-----------------------------------------------------|
|-----------------------------------------------------|	|-----------------------------------------------------|
|------------------------------6----7--6--------------|	|------------------------------6----7--6--5-----------|
|----9----10----9----7----7----6----7--6-------5ah----|	|----9----10----9----7----7----6----7--6--5----14\----|
|----9----10----9----7----7----4444455544433333-------|	|----9----10----9----7----7----4444455544433333-------|
|----77777-88888777775555555555-----------------------|	|----77777-88888777775555555555-----------------------|
      ....  .... .... .... .... .... .. .......		      ....  .... .... .... .... .... .. .......


PART 2 : (X 2) 	 0:40
   BOTH GUITARS
|-----------------------------------------------------|
|-----------------------------------------------------|
|------------------------------6----7--6--------------|
|----9----10----9----7----7----6----7--6-------5ah----|
|----9----10----9----7----7----4444455544433333-------|
|----77777-88888777775555555555-----------------------|
      ....  .... .... .... .... .... .. .......


PART 3 (X 3)   0:51
   BOTH GUITARS
|------------------------------------------------------------------------------------|
|------------------------------------------------------------------------------------|
|------------------------------------------------------------------------------------|
|--------------------------------------------------------44446666777766665555--------|
|------------------------4444555544443333----222233332222--------------------7777----|
|----77778888777755555555----------------5555----------------------------------------|
     ............................................................................


PART 4 : (X 3)   1:23
   BOTH GUITARS
|----------------|
|----------------|
|-------7---5----|
|-------7---5----|
|-------5---3----|
|----555-333-----|
     ... ...


PART 5 :   1:27
   BOTH GUITARS
D'abord, cette partie (X 4)...		... puis celle-ci
|---------------------------|		|---------------------|
|---------------------------|		|---------------------|
|---------------------------|		|---------------------|
|---------------------------|		|---------------------|
|----3-1---1-3-4-5-3-1-4----|		|----3-1---1-3-4-5----|
|--------3------------------|		|--------3------------|
     . . . . . . . . . .		     . . . . . . .


PART 4 (X 3)   1:36
PART 5   1:40
PART 3 (X 3)   1:50
PART 4 (X 3)   2:22
PART 5   2:26
PART 4 (X 2)   2:35
PART 5   2:39


PART 6 :   2:48
   GUITAR1							   GUITAR2
|--------------------------------------------------------|	|--------------------------------------------|
|--------------------------------------------------------|	|--------------------------------------------|
|-----------------------7---9----10-9-9-9----7---9-------|	|--------------------------------10-9-9-9----|
|-----------------------7---9----10-9-9-9----7---9-------|	|--------------------------------10-9-9-9----|
|----2-3-2---2-3-2------55557777--8-7-7-7----55557777----|	|----2-3-2---2-3-2----------------8-7-7-7----|
|----------4-------4-444------------------444------------|	|----------4-------4-444---------------------|
     . . . . . . . . ... ... ...          ... ... ...		     . . . . . . . . ...


PART 7 : (X 4)   2:54
   BOTH GUITARS
|--------------------------------------------------------|
|--------------------------------------------------------|
|-----------------------7---9----10-9-9-9----7---9-------|
|-----------------------7---9----10-9-9-9----7---9-------|
|----2-3-2---2-3-2------55557777--8-7-7-7----55557777----|
|----------4-------4-444------------------444------------|
     . . . . . . . . ... ... ...          ... ... ...


PART 7 : (X 2)   3:16
   GUITAR1			    GUITAR2
|-----------------|		|---------------|
|-----------------|		|---------------|
|-----------------|		|---------------|
|----9-10-9-------|		|---------------|
|-----------11----|		|----2-3-2------|
|-----------------|		|----------4----|
     .  . .  .                       . . . .


PART 8 : (X 4)   3:17
   BOTH GUITARS
|-----------------------------------------------|
|-----------------------------------------------|
|------------------------8-9-8----9-12-11-------|
|----9-10-9----9-10-9----------10---------10----|
|-----------11--------11------------------------|
|-----------------------------------------------|
     .  . .  . .  . .  . . . .  . .  .  .  .


PART 2   3:28


PART 9 :   3:33
   BOTH GUITARS
|-----------------------------------------------------|
|-----------------------------------------------------|
|------------------------------6----7--6--------------|
|----9----10----9----7----7----6----7--6--------------|
|----9----10----9----7----7----44444555444333337\-----|
|----77777-88888777775555555555-----------------------|
      ....  .... .... .... .... .... .. .......


PART 3 (X 2)   3:39
PART 8 (X 4)   4:00
J'espère que vous appréciez ces tablatures malgré les quelques erreurs qui s'y glissent. Pour toutes corrections au autre, me contacter : cannibal.invasion@caramail.com Bien évidemment, les mesures ne sont pas exactes, il faut se référer au morceau pour avoir les bons temps.
-mail
Mise à jour: 15 Avril 2001