Misanthrope
GB
English


Tablatures
Courtisane Syphilitique
.

Transcrit par Jérôme Marti (Sirium@oreka.com).
PART 1 :    0:02    (X2)

|----------------------------------------------|
|----------------------------------------------|
|----------------------------------------------|
|-------7---7-8-7---7------6---6-7-6-----------|
|-----5---8-------8------4---7-------7---------|
|----------------------------------------------|


PART 2 :   0:12
                                         
|----------------------------------------------------|
|----------------------------------------------------|
|-----------9----7--------------9----7----~----------|
|------7-10---10---10-9-7--7-10---10---10-9----------|
|----------------------------------------------------|
|----------------------------------------------------|


|----------------------------------------------------|
|-----------------------------------------~----------|
|-----------9----7--------------9----7-10-9----------|
|------7-10---10---10-9-7--7-10---10-----------------|
|----------------------------------------------------|
|----------------------------------------------------|


PART 3 :  0:23

|----------------------------------------------------|
|----------------------------------------------------|
|----------------------------------------------------|
|------------4h5-4h5---------------------------------|
|-2-2-2-2-2-----------0-0-0-0-0--5-4-----------------|
|----------------------------------------------------|


|----------------------------------------------------|
|----------------------------------------------------|
|------------^---^--------------7-6------------------|
|-----------4h5-4h5----------------------------------|
|-2-2-2-2-2----------0-0-0-0-0-----------------------|
|----------------------------------------------------|

|----------------------------------------------------|
|----------------------------------------------------|
|-------------^---^----------------------------------|
|------------4h5-4h5-------------5-4-----------------|
|-2-2-2-2-2-----------0-0-0-0-0----------------------|
|----------------------------------------------------|


|----------------------------------------------------|
|----------------------------------------------------|
|------------^---^--------------7-6------------------|
|-----------4h5-4h5----------------------------------|
|-2-2-2-2-2----------0-0-0-0-0-----------------------|
|----------------------------------------------------|

PART 4 :   0:34       (X2)

|----------------------------------------------------|
|----------------------------------------------------|
|---------------------12--11-------------------------|
|----10--9-----9--10---------------------------------|
|----------10----------------------------------------|
|-9--------------------------------------------------|


|---------------------------^^-----------------------|
|---------------------15--14--15---------------------|
|-----------------12---------------------------------|
|----10--9-----9-------------------------------------|
|----------10----------------------------------------|
|-9--------------------------------------------------|


PART 5    :  0:53                 (X4)


|----------------------------------------------------|
|----------------------------------------------------|
|----------------------------------------------------|
|----------------------------------------------------|
|-2---2-2-2--2--3------------8---8-8-8--8--10--------|
|-0---0-0-0--0--1------------6---6-6-6--6--8---------|


Transition           1:15

|----------------------------------------------------|
|----------------------------------------------------|
|----------------------------------------------------|
|----------------------------------------------------|
|--8-8-8-8-8-8-8-8-8-8-8-8---------------------------|
|--6-6-6-6-6-6-6-6-6-6-6-6---------------------------|

PART 6   :   1:18

|----------------------------------------------------|
|----------------------------------------------------|
|------~---------------------------------------------|
|------7---------7-----------------------------------|
|--5-5-------------7---------------------------------|
|--------------------5----------5--------------------|


|----------------------------------------------------|
|----------------------------------------------------|
|----------------------------------------------------|
|------~---------------------------------------------|
|------6---------6--------~--------------------------|
|--5-5---------------5---5-6----5--------------------|

Répéter Transition  1:41
Repéter PART 6      1:44


PART 7    2:08

|----------------------------------------------------|
|----------------------------------------------------|
|----------------------------------------------------|
|----------------------------------------------------|
|--7--7-7---8--8-8---7--7-7-7------------------------|
|--5--5-5---6--6-6---5--5-5-5------------------------|

Répéter PART 6      2:10
   "    PART 7      2:34   /
   "    PART 1      2:37   /   X2
   "    PART 2      2:47   /
   

PART 8    3:20              (X3)

|----------------------------------------------------|
|----------------------------------------------------|
|--------------9------------------9------------------|
|----------------------------------------------------|
|-2---2-2-2-2--7------2--2-2-2-2--7------------------|
|-0---0-0-0-0---------0--0-0-0-0---------------------|


|----------------------------------------------------|
|----------------------------------------------------|
|-------------9--------------------------------------|
|----------------------------------------------------|
|-2--2-2-2-2--7------2--2-2--7-5-7-8-7---------------|
|-0--0-0-0-0---------0--0-0--------------------------|



PART 9       4:00    (Joué à différents Tempos selon
                      les moments)
|----------------------------------------------------|
|----------------------------------------------------|
|----------------------------------------------------|
|----------------------------------------------------|
|--7-----10-----5-----8------------------------------|
|--5-----8------3-----6------------------------------|


répéter  PART 3     5:07
   "     PART 4

Toute correction ou suggestion: e-mail Sirium@oreka.com
-mail
Mise à jour: 11 Novembre 2000