Misanthrope
FR
Français


Tablatures
Contemplation
.

Trancribed by Aymeric Fontaine.

PART 1 : (X 2)   0:00
   BOTH GUITARS     A............ B.............
|------------------|-------------|--------------|
|------------------|-------------|--------------|
|------------------|-------------|--------------|
|----------9-------|-------------|--------------|
|----5-2-0---7-5---|---5-2-0-5-7-|---5-2-1-0----|
|--0-------------7-|-0-----------|-0---------3--|
   .     .           .     .           . . . .


PART 2 :   0:12
   GUITAR1    A.......... B................. C.......... D...............
|------------|-----------|------------------|-----------|----------------|
|------------|-----------|------------------|-----------|----------------|
|------------|-----------|------------------|-----------|----------------|
|----5-4-----|-----------|-----7--5-2h3p2h3-|-----------|-9-7----7-------|
|--3-----5-3-|-----------|-0-3--------------|-----------|-----10---10-9--|
|------------|-0-2-0-3-5-|------------------|-0-2-0-3-5-|----------------|
               . . . . .                      . . . . .

   GUITAR2    A.......... B.................. C.......... D.................
|------------|-----------|-------------------|-----------|------------------|
|------------|-----------|-------------------|-----------|------------------|
|------------|-----------|-------------------|-----------|------------------|
|----5-4-----|-----------|-----10--9-7h9p7h9-|-----------|-12-10-9-10-9-----|
|--3-----5-3-|-----------|-0-3---------------|-----------|--------------12--|
|------------|-0-2-0-3-5-|-------------------|-0-2-0-3-5-|------------------|
               . . . . .                       . . . . .


PART 1 (X 2)   0:21
PART 2   0:33


PART 3 : (X 2)   0:43
   BOTH GUITARS
|---------------------|
|---------------------|
|---------------------|
|---------------------|
|---------------------|
|-0---8---0-2-3-5-3-2-|
  ...................


PART 4 : (X 2)   1:08
   GUITAR1
|----------------------------------------------------------------------------------------------------------|
|----------------------------------------------------------------------------------------------------------|
|----------------------------------------------------------------------------------------------------------|
|--------------------------------------------------------7-------7-7---------------7-------7-7-------------|
|------3-------3-3---------------3-------3-3-------------5-5555555-5-555555555555555-5555555-5-5555555555--|
|--11111-1111111-1-111111111111111-1111111-1-111111111111--------------------------------------------------|
   ....  ......    ..............  ......    ............  ......    ..............  ......    ..........

   GUITAR2
|----------------------------------------------------------------------------------------|
|---------10-11-10---------10-11-10---8-7-6-9-8-7-6-7-6-5-4--/9---8-7-6-9-8-7-6-7-6-5-4--|
|--10--12-----------10--12---------------------------------------------------------------|
|----------------------------------------------------------------------------------------|
|----------------------------------------------------------------------------------------|
|----------------------------------------------------------------------------------------|
                                      .....................       .....................


PART 5 :   1:34
   GUITAR1			   GUITAR2
|------(X 3)-------|----------|	|----------------------0-----------|---------------------------------|
|------------------|----------|	|--------------------0---0---0---0-|---------------------------------|
|------------------|----------|	|----0-----0-------0-------0---0---|---9--------------12-9----11-14--|
|------------------|-2-4-5-7--|	|--2---2-----2---2-----------------|-7---10-9-12-9-10------12--------|
|--22222-22222-2-2-|-0-2-3-5--|	|--------2-----3-------------------|---------------------------------|
|--00000-00000-0-0-|----------|	|--------------(X 3)---------------|---------------------------------|
   ..... ..... . .


PART 3 (X 2)   1:47
PART 4 (X 2)   2:13


PART 6 :   2:39
   BOTH GUITARS
|------------------------------------------------------------------------------------------------------|
|------------------------------------------------------------------------------------------------------|
|------------------------------------------------------------------------------------------------------|
|-------------8-------------8--5-7--------------------8-------------------------------8-----5---7------|
|--3-5--3--2--6--3-5--3--2--6--3-5--3-5-----3---2-----6-6-6-6-6-6-6-3-5-----3---2-----6-6-6-3-3-5-5-5--|
|--1-3--1--0--6--1-3--1--0--6--3-5--1-3-3-3-1-1-0-0-0-6-6-6-6-6-6-6-1-3-3-3-1-1-0-0-0-6-6-6-3-3-5-5-3--|
                                        . .   .   . .   . . . . . .     . .   .   . .   . .   .   .


PART 7 : (X 2)   3:04
   BOTH GUITARS
|---------------------------------------------------|
|---------------------------------------------------|
|---------------------------------------------------|
|---------------------------------------------------|
|---------5---5-8------5-8--7--6---5-3---5-6--------|
|--3--5-6---6-----3--6-------------------------1-6--|
   ...............................................


PART 8 :   3:28
   GUITAR1
|--17~--17~---15-13-15------------------18-15-17-18-----18------------------------------------|
|---------------------------18-17-------------------16-----16-18--15-16--13-15--11-13---------|
|------------------------14-------15-14------------------------------------------------14-12--|
|---------------------------------------------------------------------------------------------|
|---------------------------------------------------------------------------------------------|
|---------------------------------------------------------------------------------------------|

|--------------13----11-------------------------------------------------------11--|
|-----------15----15----13-15----13----------------------13----------15-13--------|
|-----12-15-------------------15----14-15-12-15-14-12-------15-14-12-------15-----|
|--12-------------------------------------------------15--------------------------|
|---------------------------------------------------------------------------------|
|---------------------------------------------------------------------------------|

|--------12-15--------17~--17~--15-18-17-15----17-15-----------------------17-18-17-15--------------------17-18-20-20~--|
|-----15-------15--13-----------------------18-------18-16-15----15-16-18~-------------18-17-15-----18/20---------------|
|--12---------------------------------------------------------17--------------------------------17----------------------|
|-----------------------------------------------------------------------------------------------------------------------|
|-----------------------------------------------------------------------------------------------------------------------|
|-----------------------------------------------------------------------------------------------------------------------|

   GUITAR2
|------------------------------------------------------------------------------------------------------|
|------------------------------------------------------------------------------------------------------|
|------------------------------------------------------------------------------------------------------|
|-------------8-------------8--5-7--------------------8-------------------------------8-----5---7------|
|--3-5--3--2--6--3-5--3--2--6--3-5--3-5-----3---2-----6-6-6-6-6-6-6-3-5-----3---2-----6-6-6-3-3-5-5-5--|
|--1-3--1--0--6--1-3--1--0--6--3-5--1-3-3-3-1-1-0-0-0-6-6-6-6-6-6-6-1-3-3-3-1-1-0-0-0-6-6-6-3-3-5-5-3--|
                                        . .   .   . .   . . . . . .     . .   .   . .   . .   .   .


PART 7 (X 2)   3:54
PART 1 (X 6)   4:18


END :   4:54
   BOTH GUITARS
|-------------------|
|-------------------|
|-------------------|
|----------9--------|
|----5-2-0---7-5----|
|--0-------------7--|
   .     .
For Questions, comments or corrections : please contact Aymeric Fontaine at darktabs@fr.st Visit my personnal website www.darktabs.fr.st for more guitar transcriptions.
-mail
Last updated: 13 January 2003