Misanthrope
FR
Français


Tablatures
Combattant sans Sépulture
.

Trancribed by Aymeric Fontaine.
PART 1 :   0:00
   GUITAR1						   GUITAR2
|-----------------------------------------|		|-----------------------------------------|
|----------------------10-----------------|		|----------------------10-----------------|
|-------------7---9---9-9-5---7-----------|		|---------------------9-9-5---7-----------|
|----7---10---7---9---9-7-5---7---9-------|		|---------------------9-7-5---7---9-------|
|----7---10---555577777---333355559-------|		|---------------------7---333355559-------|
|----5555-8888--------------------7777----|		|---------------------------------7777----|
      ...  ... ... ...     ... ... ...			                           ... ... ...


PART 2 :   0:04
   BOTH GUITARS
|-----------------------------------------|
|----------------------10-----------------|
|-------------7---9---9-9-5---7-----------|
|----7---10---7---9---9-7-5---7---9-------|
|----7---10---555577777---333355559-------|
|----5555-8888--------------------7777----|
      ...  ... ... ...     ... ... ...


PART 3 : (X 2)   0:08
   GUITAR1						   GUITAR2
|----------------------------------------------|	|--------------------------------------------------|
|----------------------------------------------|	|--------------------------------------------------|
|----------------------------------------------|	|---------------------9-10-9-12-10-9-10-9----------|
|----777---------------------------------------|	|----777----------------------------------10-12----|
|-------888101010777--7-8-7-10-8-7-8-7---------|	|-------888101010777-------------------------------|
|--------------------------------------8-10----|	|--------------------------------------------------|
     ...... . . ....  . . .  . . . . . .		     ...... . . ....  .  . .  .  . .  . .  .


PART 2 (X 2)   0:16
PART 3 (X 2)   0:24


PART 4  : (X 2)  0:32
   BOTH GUITARS
|--------------------------------------------------------------|
|----10-8------------------------------------------------------|
|-----9-7-7-9-10-9-------9-------9-7---------------------------|
|-----7-5-7-9--8-9-------9-------9-7-9-10-9-7------------------|
|---------5-7--8-7-7-7-7-7-7-7-7-7-5-9-10-9-7------------------|
|------------------------------------7--8-7-5-5-5-5-5-5-5-5----|
                   . . .   . . .              . . . . . . .


PART 5 :   0:45
   GUITAR1 (X 2)
|--------------------------------------------------------------|
|----10-8------------------------------------------------------|
|-----9-7-7-9-10-9---------------9-7---------------------------|
|-----7-5-7-9--8-9---------------9-7-9-10-9-7------------------|
|---------5-7--8-7-7-7-7-7-7-7-7-7-5-9-10-9-7------------------|
|------------------------------------7--8-7-5-5-5-5-5-5-5-5----|
                   . . . . . . .              . . . . . . .

   GUITAR2
|----------7---------8h10h12-10-8-7-------7------8-----------12-------12----|
|------------10-8-10------------------------10-8---10--12-13----12-13-------|
|------7-9----------------------------7-9-----------------------------------|
|----7------------------------------7---------------------------------------|
|---------------------------------------------------------------------------|
|---------------------------------------------------------------------------|

|----------10-8-7-8-8--8h10h12-10-8-7-------10-8-7-8-----------12-------12----|
|----------------------------------------------------10--12-13----12-13-------|
|------7-9------------------------------7-9-----------------------------------|
|----7--------------------------------7---------------------------------------|
|-----------------------------------------------------------------------------|
|-----------------------------------------------------------------------------|



PART 6 :   0:59
|------------------------------------------------------------|	|--------------------------------------------|
|--10-8------------------------------------------------------|	|--10-8--------------------------------------|
|---9-7-7-9-10-9-------9-------9-7---------------------------|	|---9-7-7-9-10-9-------9-------9-7-----------|
|---7-5-7-9--8-9-------9-------9-7-9-10-9-7-------7-------7--|	|---7-5-7-9--8-9-------9-------9-7-9-10-9-7--|
|-------5-7--8-7-777-7-7-777-7-7-5-9-10-9-7-------7-------7--|	|-------5-7--8-7-777-7-7-777-7-7-5-9-10-9-7--|
|----------------------------------7--8-7-5-555-5-5-555-5-5--|	|----------------------------------7--8-7-5--|
                 ... .   ... .              ... .   ... .		         ... .   ... .

PART 7 :   1:10
   GUITAR1
|-------------------------------------------------------------|
|-------------------------------------------------------------|
|-------------------------------------------------------------|
|-------------------------------------------------------------|
|--------------------2-2-2------------555587777-----7---------|
|----555555877775777-0-0-0-58777757777---------78888-85555----|
     ............... . . . ...............................

   GUITAR 2
|-------------------------------------------------------------|
|-------------------------------------------------------------|
|-------------------------------------------------------------|
|-------------------------------------------------------------|
|--------------------2-2-2------------555587777-----7---------|
|--------------------0-0-0-58777757777---------78888-85555----|
                     . . . ...............................


PART 8 : (X 2)   1:19
   BOTH GUITARS
|------------------------------------------------------------|
|------------------------------------------------------------|
|------------------------------------------------------------|
|------------------------------------------------------------|
|---------------------7777----------7555587777-----7---------|
|----55555587777577758----8777757777----------78888-85555----|
     ....................................................


PART 9 :   1:37
   GUITAR1			    GUITAR2
|--------------------|		|-----------8-7-------|
|--------------------|		|---------------10----|
|--------------------|		|------10-9-----------|
|----------10-9-7----|		|----7----------------|
|------8-7-----------|		|---------------------|
|----5---------------|		|---------------------|



PART 4 (X 2)   1:41
PART 5   1:54
PART 6   2:08
PART 7   2:20
PART 8 (X 2)  2:28
PART 9   2:46
Clavier   2:49
PART 1   3:51
PART 2   3:55
PART 3 (X 2)   3:59
PART 2 (X 2)   4:07
PART 3 (X 2)   4:15
PART 4 (X 2)   4:23
PART 5   4:36
PART 4   4:50



PART 10 :   4:56
   GUITAR1						   GUITAR2
|----------------------------------------------|	|----------------------------------10-12-10-------|
|----10-8--------------------------------------|	|----10-8-----------------------------------13----|
|-----9-7-7-9-10-9-------------9-7-------------|	|-----9-7-7-9-10-9-------------9-7----------------|
|-----7-5-7-9--8-9-------------9-7-9-10-9-7----|	|-----7-5-7-9--8-9-------------9-7----------------|
|---------5-7--8-7-------------7-5-9-10-9-7----|	|---------5-7--8-7-------------7-5----------------|
|------------------000-0-0-000-----7--8-7-5----|	|------------------000-0-0-000--------------------|
                   . . . . ...				                   . . . . ...

J'espère que vous appréciez ces tablatures malgré les quelques erreurs qui s'y glissent. Pour toutes corrections au autre, me contacter : cannibal.invasion@caramail.com Bien évidemment, les mesures ne sont pas exactes, il faut se référer au morceau pour avoir les bons temps.
-mail
Last updated: 15 April 2001