Misanthrope
FR
Français


Tablatures
Bâtisseur de cathédrales
.

Trancribed by Reda Chami and Lamine Ouadahi.

. - palm mute                     / - slide up to
\ - slide down to                 ~ - vibrato
h - hammer on                     b - band
p - pull off                      r - release
t - tap with finger              () - ghost note
* - see comment                  a.h- artificial harmonics
Le morceau est en 4/4.

INTRO

* PART A

Répéter les deux mesures 3 fois (soit 6 mesures)
 1   &   2   &   3   &   4   &    1   &   2   &   3   &   4   &

|--------------------------------|--------------------------------|
|--------------------------------|--------------------------------|
|--------------------------------|--------------------------------|
|--------------------------------|--------------------------------| GTR 1
|4---------------------------4---|4-------------------------------|
|2---------------------------2---|2-------------------------------|
                             .    .

|--------------------------------|--------------------------------|---
|--------------------------------|--------------------------------|---
|--------------------------------|--------------------------------|---
|----4---7---4-------4-----------|----4---7---4-------4-----------|--- GTR 2
|----------------5-------4-------|----------------5-------4-------|---
|----------------------------5---|2---------------------------5---|2--

Les deux mesures de la GTR3 entrent à la Mesure 1 & 4
|--------------------------------|--------------------------------|---
|------------6---4~--------------|------------6-------------------|---
|---\4---7-----------------------|---\4---7---------------7---6---|4~-
|--------------------------------|---------------7----------------|--- GTR 3
|--------------------------------|--------------------------------|---
|--------------------------------|--------------------------------|---

                              --ooo--
 

* PART B

|--------------------------------|--------------------------------|----
|--------------------------------|--------------------------------|----
|--------------------------------|--------------------------------|----
|--------------------------------|--------------------------------|----   GTR 1
|4---------------------------4---|4---------------------------7-6-|4---
|2---------------------------2---|2---------------------------5-4-|2---
                             .    .                           . .
   

|--------------------------------|--------------------------------|----
|--------------------------------|--------------------------------|----
|--------------------------------|--------------------------------|----
|----4---7---4-------4-----------|----4---7---4-------4-----------|---- GTR 2
|----------------5-------4-------|----------------5-------4---7-6-|4---
|2---------------------------5---|2---------------------------5-4-|2---
                                                              . .
						

|--------------------------------|--------------------------------|----
|-----------6---4~---------------|------------6-------------------|----
|---\4--7------------------------|---\4---7---------------7---6---|4---
|--------------------------------|----------------7---------------|---- GTR 3
|--------------------------------|--------------------------------|----
|--------------------------------|--------------------------------|----

                              --ooo--

RYTHM

* PART 1

                          
 1   &   2   &   3   &   4   &    1   &   2   &   3   &   4   &

|--------------------------------|--------------------------------|
|--------------------------------|--------------------------------|
|--------------------------------|--------------------------------|
|----4---7---4-------4-----------|----4---7---4-------4-----------| GTR 1
|----------------5-------4-------|----------------5-------4-------|
|2---------------------------5---|2---------------------------5---|

                                                     
 
|--------------------------------|--------------------------------|
|------------6---4~------6---4---|----4---4~----------------------|
|---\4---7-----------------------|7---------------4---6~----------|
|--------------------------------|--------------------------------| GTR 2 *
|--------------------------------|--------------------------------|
|--------------------------------|--------------------------------|
                                                        

                                                          
|--------------------------------|--------------------------------|
|--------------------------------|--------------------------------|
|--------------------------------|--------------------------------|
|----4---7---4-------4-----------|----4---7---4-------4-----------| GTR 1
|----------------5-------4-------|----------------5-------4-------|
|2---------------------------5---|2---------------------------5---|



                                                     

|--------------------------------|--------------------------------|
|-------------6---4~-----6---4---|--------------------------------|
|---\4---7-----------------------|4---7---7---4---7---6---4-------|
|--------------------------------|--------------------------------| GTR 2 *
|--------------------------------|--------------------------------|
|--------------------------------|--------------------------------|


                                                           
|--------------------------------|--------------------------------|
|--------------------------------|--------------------------------|
|--------------------------------|--------------------------------|
|----4---7---4-------4-----------|----4---7---4-------4-----------| GTR 1
|----------------5-------4-------|----------------5-------4-------|
|2---------------------------5---|2---------------------------5---|

                                                   
|--------------------------------|--------------------------------|
|------------6---4~------6---4---|----4---4-----------------------|
|---\4---7-----------------------|7-----------4---6~--------------|
|--------------------------------|--------------------------------| GTR 2 *
|--------------------------------|--------------------------------|
|--------------------------------|--------------------------------|


|--------------------------------|--------------------------------|
|--------------------------------|--------------------------------|
|--------------------------------|--------------------------------|
|----4---7---4-------4-----------|----4---7---4-------4-----------| GTR 1
|----------------5-------4-------|----------------5-------4---7-6-|
|2---------------------------5---|2---------------------------5-4-|
                                                              . .

|--------------------------------|--------------------------------|
|-------------6---4~-----6---4---|--------------------------------|
|---\4---7-----------------------|4---7---7---4---7---6---4-------|
|--------------------------------|--------------------------------| GTR 2 *
|--------------------------------|----------------------------7-6-|
|--------------------------------|----------------------------5-4-|
                                                              . .
* I'm not sure about the GTR 2
|--------------------------------|--------------------------------|
|--------------------------------|--------------------------------| GTR 1
|--------------------------------|--------------------------------|  +
|--------------------------------|--------------------------------| GTR 2
|4---------------------------7-6-|4---------------------------7-6-|
|2---------------------------5-4-|2---------------------------5-4-|
                             . .  .                           . .

|--------------------------------|--------------------------------|
|--------------------------------|--------------------------------| GTR 1
|--------------------------------|--------------------------------|  +
|--------------------------------|--------------------------------| GTR 2
|4---------------------------7-6-|4-------------------------------|
|2---------------------------5-4-|2-------------------------------|

                             . .  .
(Les harmoniques de la GTR 2 ne sont pas mentionnés) Rejouer PART 1
                               --ooo--

* PART 2

Jouer quatre fois cette partie
 1   2   3   4    1   2   3   4    1   2   3   4    1   2   3   4
|----------------|----------------|----------------|----------------|
|----------------|----------------|----------------|----------------|
|----------------|----------------|----------------|----------------|
|----------------|----------------|----------------|----------------| GTR 1
|----------------|6666666666666666|7777777766664444|6666666666666666|
|4444444466667777|----------------|----------------|----------------|
................. ................ ................ ..............


                                                           
|----------------|----------------|----------------|----------------|
|----------------|----------------|----------------|----------------|
|----------------|----------------|----------------|----------------|
|------------6666|8888888888888888|9999999988886666|----------------| GTR 2
|--------6666----|----------------|----------------|6666666666666666|
|44444444--------|----------------|----------------|----------------|
 ................ .............. .................. ..............
         

                                                  
|----------------|----------------|----------------|----------------|
|----------------|----------------|----------------|----------------|
|----------------|----------------|----------------|----------------|
|----------------|----------------|----------------|----------------| GTR 1
|7777777766664444|6---------------|----------------|----------------|
|----------------|-744444444444444|7777444400006666|4444444444444444|
 ................ ................ ................ ................


|----------------|----------------|----------------|----------------|
|----------------|----------------|----------------|----------------|
|----------------|----------------|----------------|----------------|
|9999999988886666|----------------|----------------|----------------|GTR 2
|----------------|6666666666666666|7777666644447777|6666666666666666|
|----------------|----------------|----------------|----------------|
 ................ ................ ................ ................


                               --ooo--

* PART 3

Jouer 8 fois.
 1  2  3  4   1  2  3  4   1  2  3  4   1  2  3  4   1  2  3  4
|------------|------------|------------|------------|------------|
|------------|------------|------------|------------|------------|
|------7--5\7|------------|10-9--------|7--5\7------|-----10--9--|
|------5--3\5|---7--7\8---|8--7--------|5--3\5---7--|7\8---8--7--|
|000000------|0005--5\6666|------000000|------0005--|5\6666------|
|------------|------------|------------|------------|------------|
 ......       ...      ...       ......       ...       ...



                               --ooo--



 1   2   3   4    1   2   3   4    1   2   3   4    1   2   3   4
|----------------|----------------|----------------|----------------|
|----------------|----------------|----------------|----------------|
|----------------|----------------|----------------|----------------|
|----------------|----------------|----------------|----------------| GTR 1
|----------------|6-----------6---|7-------6---4---|6-----------6---|
|4-------6---7---|----------------|----------------|----------------|


|----------------|----------------|----------------|----------------|
|----------------|----------------|----------------|----------------|
|----------------|----------------|----------------|----------------|
|------------6---|8---------------|9-------8---6---|------------8---| GTR 2
|--------6-------|----------------|----------------|6---------------|
|4---------------|----------------|----------------|----------------|
         

|----------------|----------------|----------------|----------------|
|----------------|----------------|----------------|----------------|
|----------------|----------------|----------------|----------------|
|----------------|----------------|----------------|----------------| GTR 1
|7-------6---4---|6---------------|----------------|----------------|
|----------------|-74---------4---|7---4---0---6---|4---------------|


|----------------|----------------|----------------|----------------|
|----------------|----------------|----------------|----------------|
|----------------|----------------|----------------|----------------|
|9-------8---6---|----------------|----------------|----------------|GTR 2
|----------------|6-----------6---|7---6---4---7---|6---------------|
|----------------|----------------|----------------|----------------|

                               --ooo--

SOLO

Le rythme du solo est Part2 à un tempo plus rapide. Après le solo de basse jouer la partie 3 puis rejouer la première partie du rythme.

|------------------------------|---       |-----------------------------|
|------------------------------|---       |-----------------------------|
|------------------------------|---  GTR  |-----------6---4~------------|  GTR
|---4---7---4-------4----------|---   1   |--\4---7---------------------|   2
|---------------5-------4------|---       |-----------------------------|
|---------------------------5--|2--       |-----------------------------|



|------------------------------|---
|------------------------------|---  GTR 1
|------------------------------|---   +
|------------------------------|---  GTR 2
|--------------------------7-6-|4--
|--------------------------5-4-|2--
                           . .  .
Hope you enjoy this tab. I know it isn't 100% correct. For Questions, comments, corrections, or newest version; please contact Kiki at headbanga@yahoo.com .

Les mesures ne sont pas tout à fait exactes, se référer au morceau pour avoir les bons temps.

-mail
Last updated: 15 October 1999