Misanthrope
FR
Français


Tablatures
Solstice of Poetries - Aquarium
.

Trancribed by Aymeric Fontaine.
PART 1 :   0:00
   BOTH GUITARS
|------------------------------10-12-10------------------------------------------------------------|
|-----------------12-12-12--13----------13-12-10-12--10-12-13-12-10------------------12------------|
|----9-11-12-11-9---------------------------------------------------12-12-9--9-11-11----8-9--9\----|
|--------------------------------------------------------------------------------------------------|
|--------------------------------------------------------------------------------------------------|
|--------------------------------------------------------------------------------------------------|



PART 2 :   0:15
   BOTH GUITARS
|----------------------------------------------------------------------|
|----------------------------------------------------------------------|
|----------------------------------------------------------------------|
|-------------------------2-------------------------------------1------|
|--------------2-2-2--3-5---5-3-2---2----2-3-2----------------2--------|
|----0-2-3-2-0--------------------3----5-------5-3-3-0--2-2-2-----0----|



AQUARIUM :

PART 3 : (X 8)   0:00
   BOTH GUITARS
|---------------------------|
|---------------------------|
|---------------------------|
|----7-----7----------------|
|----7-----7-----8-7--------|
|----5-5-5-5-5-5-----8-4----|
       . .   . .


PART 4 : (X 2)   0:20
   GUITAR1
|--------------------------------------------------------------------------------------------------------|
|--------------------------------------------------------------------------------------------------------|
|--------------------------------------------------------------------------------------------------------|
|----2-----2---2-3-3-3-2-2----5-----5---5-3-3-3-2-2----7-----7---7--------------3-----3---5--------------|
|----2-----2---2-----------3--5-----5---5-----------3--7-----7---7-8-8-8-7-7----3-----3---5-------3-2----|
|----0-0-0-0-0-0--------------3-3-3-3-3-3--------------5-5-5-5-5-5-----------8--1-1-1-1-1-3-3-3-3--------|
       . .   .                  . .   .                  . .   .                  . .   .   . . .

   GUITAR2
|----------------------------------------------------------------------------------------------------------|
|----------------------------------------------------------------------------------------------------------|
|----------------2-2-2--------------------2-2-2------------------------------------------------------------|
|----2-----2---2-------5-5-2--5-----5---5-------5-5-2--7-----7---7-7-7-7-5-5----3-----3---5----------------|
|----2-----2---2--------------5-----5---5--------------7-----7---7-----------7--3-----3---5-------5/7-5----|
|----0-0-0-0-0-0--------------3-3-3-3-3-3--------------5-5-5-5-5-5--------------1-1-1-1-1-3-3-3-3----------|
       . .   .                  . .   .                  . .   .                  . .   .   . . .



PART 5 : (X 2)   0:43
   BOTH GUITARS
|------------------------------------------------------------------------------------------------------------|
|------------------------------------------------------------------------------------------------------------|
|------------------------------------------------------------------------------------------------------------|
|----2-----2---2-3-3-3-2-2------5-----5---5-3-3-3-2-2------7-----7---7----------------3-----3---5------------|
|----2-----2---2-----------3-3--5-----5---5-----------3-3--7-----7---7-8-8-8-7-7------3-----3---5-----3-2----|
|----0-0-0-0-0-0----------------3-3-3-3-3-3----------------5-5-5-5-5-5-----------8-8--1-1-1-1-1-3-3-3--------|
       . .   .   . . . . . . .    . .   .   . . . . . . .    . .   .   . . . . . . .    . .   .   . .


PART 6 :   1:07
   GUITAR1 (X 2)
|--------------------------------------------------------------------------------------------------------|
|--------------------------------------------------------------------------------------------------------|
|--------------------------------------------------------------------------------------------------------|
|----2-----2---2-3-3-3-2-2----5-----5---5-3-3-3-2-2----7-----7---7--------------3-----3---5--------------|
|----2-----2---2-----------3--5-----5---5-----------3--7-----7---7-8-8-8-7-7----3-----3---5-------3-2----|
|----0-0-0-0-0-0--------------3-3-3-3-3-3--------------5-5-5-5-5-5-----------8--1-1-1-1-1-3-3-3-3--------|
       . .   .                  . .   .                  . .   .                  . .   .   . . .

   GUITAR2
|------------------------------------------------------------------------------------|
|------------------------------------------------------------------------------------|
|------------------------------------------------9-10----------------9---9.......----|
|----7-77-7-77-777-9-10-----99----99-----99910ah-------7-10--9----12121212.......----|
|-----------------------10ah--10ah--10ah-----------------------10--------------------|
|------------------------------------------------------------------------------------|

|-----------------------------------------------------------------------------------|
|-------------------------------------------10(12)-12\10-10\8-8\6-5h6p5h6.......----|
|-------------------------------8-9----9-10-----------------------------------------|
|-------7-10----7-10----7-10-10-----10----------------------------------------------|
|----10------10------10-------------------------------------------------------------|
|-----------------------------------------------------------------------------------|



PART 7 : (X 2)   1:30
   BOTH GUITARS
|------------------------------------------------------------------------------|
|------------------------------------------------------------------------------|
|------------------------------------------------------------------------------|
|---------------2-----2----------3---3-2----------2--3---3-2-------------------|
|----------2-3----3-2---3-2---2----5-----3--2-3-2------5-----3--2-3-2----------|
|----0-3-5------------------5-----------------------------------------5-3-5----|
     ......................................................................


PART 8 : (X 2)   2:44
   BOTH GUITARS
|------------------------------|
|-------------------------6----|
|-------------------5-----5----|
|----2--3---2----5--5-----3----|
|----2----5---3--5--3-3-3------|
|----0-----------3-------------|
		      . .


PART 9 :   3:03
   GUITAR1
|---------------------------------------------------------------------------------------------------------------------------------------------------------------------------------|
|---------------------------------------------------------------------------------------------------------------------------------------------------------------------------------|
|-------2--2--2--3-2--2-2-2-3-3-2-2---------------3-3-3-3--2--3-2--2-2-2-3-3-2-2---------------3-3-3-3--2--3-2--2-3-------------3-3-3-3--2--3-2--2-2-2-3-3-2-2---------------2----|
|----2--2---------------------------3--3-2--2-2-2--------------------------------3--3-2--2-2-2----------------------3--2--2-2-2--------------------------------3--3-2--2-2-2------|
|-------0-------------------------------------------------------------------------------------------------------------------------------------------------------------------------|
|---------------------------------------------------------------------------------------------------------------------------------------------------------------------------------|

   GUITAR2
|----------------------------------------------------------------------------------------------------------------------------------------------------------------------|
|-------------------------------------------------------------3----------3-3--------------------5-5-5-5-2--3-2--3-5-6------3----------3-3--------------------5--5-5----|
|-------2--2--2--3-2--2-2-2-3-3-2-2---------------3-3-3-3--5----5--5-5-5-----5-5--2--2-1--1-1-1--------------------------5---5--5-5-5-----5-5-2--2-1--1-1-1------------|
|----2--2---------------------------3--3-2--2-2-2----------------------------------------------------------------------------------------------------------------------|
|-------0--------------------------------------------------------------------------------------------------------------------------------------------------------------|
|----------------------------------------------------------------------------------------------------------------------------------------------------------------------|



PART 10 :   3:35
   BOTH GUITARS
|-------------------------------|
|-------------------------------|
|-------------------------------|
|----8-7-5-4---4---4---8-7-5----|
|----8-7-5-4---4---4---8-7-5----|
|----6-5-3-2---2---2---6-5-3----|



PART 11 : (X 2)   3:46
   GUITAR2
|------------------------------------------------------------------------------------------------------------------|
|------------------------------------------------------------------------------------------------------------------|
|------------------------------------------------------------------------------------------------------------------|
|--------------------------------------------------------------------------------3-1-------------------------------|
|--------------3----------3-----------------1---4---3---3---4-1-4-3----4-3-1---1----------------3------------------|
|----1-4-3-1-4---4-3--3-4---4-3--4-3-1-0-1--------------------------4--------4--------4--3--4-3----3--4-3-1-0-1----|


   GUITAR2
|------------------------------------------------------------------------------------------------------------------|
|------------------------------------------------------------------------------------------------------------------|
|------------------------------------------------------------------------------------------------------------------|
|------------------------------------------------------------------------------------------------------------------|
|--------------3----------3-----------------1---4---3---3---4-1-4-3----4-3-1---1-4-3------------3------------------|
|----1-4-3-1-4---4-3--3-4---4-3--4-3-1-0-1--------------------------4--------4--------4--3--4-3----3--4-3-1-0-1----|



PART 12 :   4:40
   BOTH GUITARS
|---------|
|---------|
|---------|
|----3----|
|----3----|
|----1----|



PART 1   4:53
PART 2   5:09
J espère que vous apprécierez ces tablatures malgré les quelques erreurs qui s'y glissent. Pour toutes corrections, encouragements, insultes ou autre, me contacter : cannibal.invasion@caramail.com

Bien évidemment, les mesures ne sont pas exactes, il faut se référer au morceau pour avoir les bons temps.

-mail
Last updated: 24 July 2001